Bienvenid@ a Tabs Fácil.es un Blog de guitarra creado para l@s que os gusta tocar la guitarra y con el único objetivo de pasar un buen rato y divertirse sin dejar de practicar.

Coge tu Guitarra, ponte cómod@ y pasa un buen rato en Tabs Fácil.es, un blog para todos los que estáis aprendiendo o queréis aprender a tocar la guitarra, donde vas a encontrar cantidad de artículos relacionados con el mundo de la guitarra, cómo Lecciones, Consejos, Conceptos Básicos, Curiosidades, Recomendaciones...

Especialmente diseñada para ti, si eres guitarrista autodidacta y, con dos únicas premisas, que te diviertas y practiques con tu guitarra. 

 Todo lo necesario para divertirte y practicar lo tienes en Tabs Fácil.es, el complemento perfecto para tu aprendizaje y desde ahora tu Blog de Guitarra.

Adelante.

Aprende a Tocar la Guitarra:

Guía Fácil Futuro Guitarrista.

Imagen
    Quieres aprender a tocar la guitarra?   Olvídate de excusas y deja atrás tus dudas, la  Guía Fácil para el Futuro Guitarrista  es la herramienta perfecta para conseguirlo. La  Guía Fácil para el Futuro Guitarrista  es un método de guit arra, una guía fácil compuesta de las Lecciones y Ejercicios Básicos necesarios para adentrarte en el mundo de la guitarra y comenzar a tocarla de la manera más rápida y sencilla. Seguro que más de una vez te has planteado  aprender a tocar la guitarra . Para Año Nuevo, en vacaciones o de regreso de ellas… Pero siempre por una u otra razón nunca te has puesto a ello. Muy posiblemente algunas de las excusas que has puesto para no hacerlo han sido del tipo:     “Mis manos son muy pequeñas o muy grandes, me falta destreza en las manos, no quiero estudiar Teoría, ya no tengo edad, no dispongo del tiempo suficiente..."   La Guía Fácil para el Futuro Guitarrista.      "Con esta  Guía Fácil para el Futuro Guitarrista  no pretendo reescribir o rei

Tabs Fácil de... Santa Bárbara. Avalanch.


  La banda de Alberto Rionda, Avalanch, regresaba, hace ya unos años, a la actualidad metalera con nueva formación, nada más y nada menos que con la intención de regrabar su famoso álbum "El ángel caído" cuarto álbum de la banda y uno de los trabajos, si no el que más, aclamado de la formación.
  Atrás quedaban, antiguas formaciones, y el último proyecto del guitarrista, Alquimia. Para esta nueva andadura la banda se embarcaba en una campaña de crowdfunding para que todos los seguidores de la banda colaborasen en la regrabación de dicho álbum.
   Os quiero dejar un breve momento en tablatura de uno de los temas de la primera grabación del disco, "Santa Bárbara."
   Un saludo.



Tabs fácil de... Santa Bárbara. Avalanch.



1.----------------------------|
2.------9--8-9-11-9-----------|
3.-/8-8-------------8-8--/8-9-8
4.----------------------------|
5.----------------------------|
6.----------------------------|

1.----------------------------|
2.--------------------------9-8
3.-6-8------8-8(9)(8)--/8-8---|
4.-----9-11-------------------|
5.----------------------------|
6.----------------------------|

1.-----------------------------|
2.-9-11-9----------------------|
3.--------8--/8-9--/8-6-8------8
4.------------------------9-11-|
5.-----------------------------|
6.-----------------------------|

1.---------------------------|
2.-12-14h14(16)--14(16)-14(16)
3.---------------------------|
4.---------------------------|
5.---------------------------|
6.---------------------------|

1.------------------------------|
2.-14(16)-14-12----12-14--14(16)(14)
3.--------------15--------------|
4.------------------------------|
5.------------------------------|
6.------------------------------|

1.---------------------------|
2.-12----------12------------|
3.----15-13-15-----15-16-15-13
4.---------------------------|
5.---------------------------|
6.---------------------------|

1.---------------------------|
2.-15-16-15----15------------|
3.----------16----16-15-16--15
4.---------------------------|
5.---------------------------|
6.---------------------------|

1.-------------------------|
2.-------------------------|
3.-13h15h13-12------18-18(20)
4.---------------21--------|
5.-------------------------|
6.-------------------------|

1.----------------------------|
2.----------------------------|
3.-18(20)-18(20)--18(20)(18)-16
4.----------------------------|
5.----------------------------|
6.----------------------------|

1.-------------------|
2.-------------------|
3.-18-18(20)(18)-16h18
4.-------------------|
5.-------------------|
6.----------------|...

Comentarios