Tablaturas Fáciles Para Guitarra.

Bienvenid@ a Tabs Fácil.es un Blog de guitarra creado para l@s que os gusta tocar la guitarra y con el único objetivo de pasar un buen rato y divertirse sin dejar de practicar.

Coge tu Guitarra, ponte cómod@ y pasa un buen rato en Tabs Fácil.es, un blog para todos los que estáis aprendiendo o queréis aprender a tocar la guitarra, donde vas a encontrar cantidad de Tablaturas fáciles para guitarra y Acordes de canciones.

Especialmente diseñado para ti, si eres guitarrista autodidacta y, con dos únicas premisas, que te diviertas y practiques con tu guitarra. 

 Todo lo necesario para divertirte y practicar lo tienes en Tabs Fácil.es, el complemento perfecto para tu aprendizaje y desde ahora tu Blog de Guitarra.

Adelante.


Última Entrada en Tabs Fácil.es:

Tabs Fácil de... Hell on Earth. Iron Maiden.

Imagen
  Pequeño fragmento en tablatura para guitarra de "Hell on Earth" perteneciente al disco "Senjutsu" de Iron Maiden . "Senjutsu" es el título del disco número 17 en la carrera de la banda británica Iron Maiden . Un disco lanzado el pasado 3 de septiembre de 2021 y en el que podemos encontrar muy buenos temas, como el que cierra el álbum, "Hell on Earth" y del que hoy os quiero dejar un pequeño fragmento en tablatura fácil para guitarra , con el que practicar o simplemente disfrutar tocando la guitarra de la mano de tabsfacil.es y la Dama de Hierro. Un saludo. Oir Tema . Tabs Fácil de... Hell on Earth. Iron Maiden. (2:15) *Tiempos del video. 1.- -----------------------| 2.- -----------------------| 3.- -----------------------| 4.-9-7-9----9-10-12p10p9--| 5.-------12--------------12 6.------------------------| 1.- --------| 2.- --------| 3.- --------| 4.-9--7-9--| 5.---------| 6.---------| 1.- -----------------------| 2.- ---------------------

Tabs Fácil de... Stratego. Iron Maiden.

 

Tabs Fácil de... Stratego. Iron Maiden.

Tablatura fácil de alguno de los riffs del tema "Stratego" segundo adelanto del nuevo disco de Iron Maiden: "Senjutsu."

"Stratego" es el segundo tema del esperado álbum número 17 de Iron Maiden, "Senjutsu", cuya presentación en todo el mundo está lista para el 3 de septiembre de este 2021.




"Stratego" es una de las dos canciones del álbum compuesto por 10 temas y una duración de 82 minutos que han sido creadas por el guitarrista Janick Gers y el bajista Steve Harris

A continuación, os quiero dejar un pequeño fragmento en tablatura para guitarra de alguno de los riffs que se pueden escuchar en el tema "Stratego" perteneciente al disco "Senjutsu" de Iron Maiden.

 Un saludo.

Oir Tema.


Tabs Fácil de... Stratego. Iron Maiden.


1.------------------------|

2.------------------------|

3.-4--/4-3----------4--/4-3

4.-2-------/5-4--5--2-----|

5.------------------------|

6.------------------------|


1.-------------|

2.-------------|

3.-------------|

4.-/5-4--/5-2--|

5.-------------|

6.-------------|


1.------------------------|

2.------------------------|

3.-4--/4-3----------4--/4-3

4.-2-------/5-4--5--2-----|

5.------------------------|

6.------------------------|


1.-------------|

2.-------------|

3.-------------|

4.-/5-4--/5-2--|

5.-------------|

6.-------------|


(0:31)


1.-7-----10-7----------7--|

2.---10-------10-8-10----10

3.------------------------|

4.------------------------|

5.------------------------|

6.------------------------|


1.-10-7--------7---10-7---|

2.------10-8----10------10|

3.------------------------|

4.------------------------|

5.------------------------|

6.------------------------|


1.-------12--10-7------|

2.-8-10-----------10---|

3.---------------------|

4.---------------------|

5.---------------------|

6.---------------------|


Un artículo de TabsFácil.es




Comentarios

Los más buscados:

Acordes para Guitarra de... La Dama del Mar. Mägo de Oz.

Tabs fácil de... Cielo Hermético. Fito & Fitipaldis.

Tabs Fácil de... Bandera Negra. Mägo de Oz.

Acordes para Guitarra de... El Cervezo. (El árbol de la Birra). Mägo de Oz.

Tabs Fácil de... Bohemian Rhapsody. Queen.

Tabs Fácil de... Steel Commanders. Sabaton.

Tabs Fácil de... The Heart That Never Waits. Joe Bonamassa.

Dónde está la Púa? Mata Rile, Rile, Rile...

Tabs Fácil de... Move. Santana.