Tablaturas Fáciles Para Guitarra.

Bienvenid@ a Tabs Fácil.es un Blog de guitarra creado para l@s que os gusta tocar la guitarra y con el único objetivo de pasar un buen rato y divertirse sin dejar de practicar.

Coge tu Guitarra, ponte cómod@ y pasa un buen rato en Tabs Fácil.es, un blog para todos los que estáis aprendiendo o queréis aprender a tocar la guitarra, donde vas a encontrar cantidad de Tablaturas fáciles para guitarra y Acordes de canciones.

Especialmente diseñado para ti, si eres guitarrista autodidacta y, con dos únicas premisas, que te diviertas y practiques con tu guitarra. 

 Todo lo necesario para divertirte y practicar lo tienes en Tabs Fácil.es, el complemento perfecto para tu aprendizaje y desde ahora tu Blog de Guitarra.

Adelante.


Última Entrada en Tabs Fácil.es:

Tabs Fácil de... Hell on Earth. Iron Maiden.

Imagen
  Pequeño fragmento en tablatura para guitarra de "Hell on Earth" perteneciente al disco "Senjutsu" de Iron Maiden . "Senjutsu" es el título del disco número 17 en la carrera de la banda británica Iron Maiden . Un disco lanzado el pasado 3 de septiembre de 2021 y en el que podemos encontrar muy buenos temas, como el que cierra el álbum, "Hell on Earth" y del que hoy os quiero dejar un pequeño fragmento en tablatura fácil para guitarra , con el que practicar o simplemente disfrutar tocando la guitarra de la mano de tabsfacil.es y la Dama de Hierro. Un saludo. Oir Tema . Tabs Fácil de... Hell on Earth. Iron Maiden. (2:15) *Tiempos del video. 1.- -----------------------| 2.- -----------------------| 3.- -----------------------| 4.-9-7-9----9-10-12p10p9--| 5.-------12--------------12 6.------------------------| 1.- --------| 2.- --------| 3.- --------| 4.-9--7-9--| 5.---------| 6.---------| 1.- -----------------------| 2.- ---------------------

Tabs Fácil de... Steel Commanders. Sabaton.

Tabs Fácil de... Steel Commanders. Sabaton.

  Tablatura para guitarra de un pequeño fragmento perteneciente al tema "Steel Commanders" del grupo de heavy metal Sabaton.

Los suecos Sabaton vuelven a colaborar con la desarrolladora de videojuegos de World Of Tanks, Wargaming, y lo hacen grabando un nuevo tema "Steel Commanders" en el que participa la violonchelista Tina Guo.




Sabaton tiene además, su propio juego del que puedes disfrutar pinchando en el siguiente enlace.

Toca con la guitarra, aprende o simplemente disfruta con un pequeño fragmento en tablatura fácil para guitarra del melódico solo que los suecos se marcan para el tema.

Un saludo.

Oir Tema.


Tabs Fácil de... Steel Commanders. Sabaton.

(3:49) *Tiempos del vídeo.

1.-----7-8--7-5-7-8--10-12|

2.-/10 -------------------|

3.------------------------|

4.------------------------|

5.------------------------|

6.------------------------|


1.-8--10--7--/8--7-5-7-8-10

2.------------------------|

3.------------------------|

4.------------------------|

5.------------------------|

6.------------------------|


1.-/13--12--10-------7-8--|

2.---------------/10------|

3.------------------------|

4.------------------------|

5.------------------------|

6.------------------------|


1.-7-5-7-8--10--/15--13--12

2.------------------------|

3.------------------------|

4.------------------------|

5.------------------------|

6.------------------------|


1.-10-----8-7-5-7-8-10--/13

2.-----10-----------------|

3.------------------------|

4.------------------------|

5.------------------------|

6.------------------------|


1.-12--10--|

2.---------|

3.---------|

4.---------|

5.---------|

6.------|...


Un artículo de TabsFácil.es


Comentarios

Los más buscados:

Acordes para Guitarra de... La Dama del Mar. Mägo de Oz.

Tabs fácil de... Cielo Hermético. Fito & Fitipaldis.

Tabs Fácil de... Bandera Negra. Mägo de Oz.

Acordes para Guitarra de... El Cervezo. (El árbol de la Birra). Mägo de Oz.

Tabs Fácil de... Stratego. Iron Maiden.

Tabs Fácil de... Bohemian Rhapsody. Queen.

Tabs Fácil de... The Heart That Never Waits. Joe Bonamassa.

Dónde está la Púa? Mata Rile, Rile, Rile...

Tabs Fácil de... Move. Santana.