Tabs Fácil de... The Writing On The Wall. Iron Maiden.

Tabs Fácil de... The Writing On The Wall. Iron Maiden.

Pequeño fragmento con Acordes y Tablatura fácil para guitarra del tema, “The Writing On The Wall” de Iron Maiden.


The Writing On The Wall: Nuevo Tema de Iron Maiden.

Seis años después de su último disco de estudio, "The Book Of Souls", y tras unos días de amplía rumorología por parte de prensa y aficionados, en torno a declaraciones y publicaciones por parte de la banda, a modo de juego, en las que anunciaban e invitaban de una manera directa a veces y no tanto en otras al Belshazzar's Feast, el día 15 de Julio...




... Una invitación y rumorología que nos hacía ilusionarnos con la posibilidad de oír nueva música de la banda y así ha sido, Iron Maiden nos presentaba "The Writing On The Wall", un gran tema cargado a partes iguales de frescura y novedad, y del sonido Maiden tan característico de la Dama de Hierro, acompañado de un espectacular vídeo animado creado por el estudio de animación BlinkInk.

"The Writing On The Wall" es un tema compuesto por Adrian Smith y Bruce Dickinson, que apunta a ser el primer single de un nuevo disco, aunque aún no hay anuncio oficial. 


Nuevo disco de Iron Maiden.

Ya en diciembre de 2019, Kevin Shirley, el productor de sus últimos trabajos, confirmó haber trabajado en un proyecto importante en un estudio de grabación de París, más tarde los propios miembros de la formación constataron que habría nuevas canciones pronto, lo que dio pie a entender que el nuevo disco de Iron Maiden estaba preparado.

Bruce Dickinson declaraba tras la presentación:

 "Tenía una idea bastante clara del concepto que acompañaría a la canción... Es más bien una minipelícula."

El director de BlinkInk y gran fan de Iron Maiden, Nicos Livesey, también hacía declaraciones al respecto:  "...Tuvimos más de 60 personas en 13 países desde Brasil a Francia, y Rumanía a EE.UU..."





Hoy como viene siendo habitual os quiero dejar un Pequeño fragmento en tablatura fácil para guitarra del tema, “The Writing On The Wall” de Iron Maiden, en concreto del riff principal y los acordes para guitarra del estribillo, siempre con la intención de que puedas pasar un buen rato mientras practicas con tu guitarra de la mano de Tabsfácil.es e Iron Maiden.

Un saludo

Oir Tema.



Tabs Fácil de... The Writing On The Wall. Iron Maiden.

(1:10) Tiempos del vídeo.

1.----------------------|

2.----------------------|

3.-----2------2------2--|

4.---0-0----0-0----0-0--|

5.-3------3------3------|

6.----------------------|


1.----------------|

2.----------------|

3.-------0--------|

4.---0h3---3p2----|

5.-3-----------3--|

6.-------------|...


(Estribillo)...

Rem         Fa        Do             Sol

Have you seen the writing on the wall.

Rem      Fa    Do        Sol

Have you seen that writing.

Rem      Fa    Do        Sol

Can you see the riders on the storm.

La#                Do                     

Can you see them riding.

La#                Do                     

Can you see them riding...


(2:22)

1.-----1h3--1h3--1p0----|

2.-1h3---------------1--|

3.----------------------|

4.----------------------|

5.----------------------|

6.----------------------|


1.-----1h3--1p0--------|

2.-1h3----------1-3----|

3.---------------------|

4.---------------------|

5.---------------------|

6.------------------|...


(4:06)


1.---5-5--5-6-5-3--------1|

2.-3--------------6-3-----|

3.---------------------3--|

4.------------------------|

5.------------------------|

6.------------------------|


1.---3-----5-5--5-6-5-3---|

2.-1-----3--------------6-3

3.------------------------|

4.------------------------|

5.------------------------|

6.------------------------|


1.-------3-----------|

2.-3-5-6---6-5-3--1--|

3.-------------------|

4.-------------------|

5.-------------------|

6.----------------|...


Un artículo de Tabs Fácil.es



Tabs Fácil de... The Writing On The Wall. Iron Maiden.


Comentarios

Lo Más Visto en Tabs Fácil.es:

Whole Lotta Love: Elegido Mejor Riff de la Historia del Rock.

Guitarrista Autodidacta: 3 Webs Básicas.

Fender reestrena el modelo Jag-Stang en el 30 Aniversario de Nevermind.

Lzzy Hale Primera Mujer Embajadora de Guitarras Gibson.

Acordes para Guitarra de... El Cervezo. (El árbol de la Birra). Mägo de Oz.

Tabs Fácil de... Bandera Negra. Mägo de Oz.

Acordes de... "Segundo Movimiento: Mierda de Filosofía." Robe.

Tabs Fácil de... Bohemian Rhapsody. Queen.