Tabs fácil de... Electric Sunset. Twanguero.


 Considerado por muchos como uno de los mejores guitarristas de España, ganador del Grammy Latino por su trabajo con Diego "El Cigala", Twanguero convoca tanto a fanáticos de la guitarra cómo todo tipo de aficionados a la buena música en general.


Electric Sunset. Disco. Twanguero.

  Diego García, conocido cómo el Twanguero, lanzaba en el 2018 su último trabajo discográfico, "Electric sunset". Un álbum que compuso en Los Ángeles, lugar donde reside desde hace unos años y que grabó entre la ciudad californiana y Madrid.




El "prócer de la guitarra" como fue apodado por la prensa norteamericana, lanzó su carrera solista después de acompañar a grandes como Bunbury, Calamaro, El Cigala o Urrutia, entre otros.


Tablatura para guitarra.

 Uno de los singles del álbum, era precisamente el tema que daba título a este disco, "Electric sunset", es del que hoy os quiero dejar unos momentos en tablatura para guitarra, para que disfrutéis y practiquéis al ritmo y estilo de este gran guitarrista.

Un saludo.



Tabs fácil de... Electric Sunset. Twanguero.

(0:10)

1.-3-----------------------|
2.-3-----------------------|
3.-3-----------------------|
4.-5-----------------------3
5.-5-----5------------5--3-|
6.-----3----6-5-3---3------|

1.-------------------------|
2.-------------------------|
3.----------------2--------|
4.-0--0-----------4------5-|
5.-5--5-7--5-3-5----0------|
6.--------------------3----|

1.-1-1-1--1--3-------------|
2.-1-1-1--1--3-------------|
3.-2-2-2--2--3-----7-------|
4.-3-3-3--3--5---5---8-7-5-|
5.-3-3-3--3--5-------------|
6.-------------------------|

1.-------------------------|
2.--------6----------------|
3.---7--5----7--7/11-------9
4.-5---------7--7/11--7-11-|
5.-------------------------|
6.-------------------------|

1.-------------------------|
2.-10---8------------------|
3.-10---8--10-8-7--5-7-----|
4.---------------------7-5-5
5.-------------------------|
6.-------------------------|

1.-1-1-1--1--3--|
2.-1-1-1--1--3--|
3.-2-2-2--2--3--|
4.-3-3-3--3--5--|
5.-3-3-3--3--5--|
6.-----------|...


Un artículo de Tabs Fácil.es



Tabs fácil de... Electric Sunset. Twanguero.



Comentarios

Lo Más Visto en Tabs Fácil.es:

Whole Lotta Love: Elegido Mejor Riff de la Historia del Rock.

Guitarrista Autodidacta: 3 Webs Básicas.

Fender reestrena el modelo Jag-Stang en el 30 Aniversario de Nevermind.

Lzzy Hale Primera Mujer Embajadora de Guitarras Gibson.

Acordes para Guitarra de... El Cervezo. (El árbol de la Birra). Mägo de Oz.

Tabs Fácil de... Bandera Negra. Mägo de Oz.

Acordes de... "Segundo Movimiento: Mierda de Filosofía." Robe.

Tabs Fácil de... Bohemian Rhapsody. Queen.