Última Entrada en Tabs Fácil.es:

Tabs Fácil de... We Stand As One. Burning Witches.

Imagen
Burning Witches nos presentaba el pasado 28 de mayo de 2021 su tercer larga duración, "The Witch Of The North" un disco que no deja indiferente a ningún seguidor del clásico sonido heavy metal. "The Witch Of The North" We Stand As One. Burning Witches. De los trece cortes que componen el último trabajo de las brujas del heavy metal, utilizaron "We Stand As One" para presentarlo el mismo día del disco, un tema cargado de melodía y sonido épico al más puro estilo heavy metal de toda la vida, un muy buen tema, dentro de un muy buen disco que seguro está haciendo pasar un buen rato a todo el que lo escucha. La banda hablaba así de su reciente trabajo: "¡Estamos felices y orgullosas de anunciar el nuevo disco y mostraros la excelente portada! Hemos crecido juntas como equipo y hemos llevado nuestro sonido al siguiente nivel, ¡Burning Witches en 2021 es más heavy y épico que nunca! ¡Conoce a LA BRUJA DEL NORTE y enamórate de nuestra evolución!&qu

Tabs fácil de... We Stand Alone. Angelus Apátrida.

Tabs fácil de... We Stand Alone. Angelus Apatrida.

 

Angelus Apátrida lanzaba su séptimo disco de estudio el pasado 5 de febrero de 2021. Un disco que en apenas unas horas era catalogado por fans y crítica como el mejor hasta la fecha de la banda de Albacete.

Angelus Apátrida.

 Si hay una banda que se ha trabajado y bien duro la posición en la que se encuentran hoy en día, todo un referente del Thrash Metal a nivel nacional e internacional, es sin duda, Angelus Apátrida. Una de esas bandas de las que esperas con ganas cada uno de sus nuevos trabajos...

Este era el caso de su séptimo trabajo de nombre homónimo, "Angelus Apátrida" y es que los temas que utilizaron para ir abriendo boca como adelanto de su último disco, "Indoctrinate" o "Bleed The Crown" eran ambos temazos que no hacían otra cosa que dejarnos con ganas de mucho más... 





Y con razón ya que "Angelus Apátrida" en apenas unas horas en salir al mercado ya era catalogado por fans y crítica como el mejor hasta la fecha de la banda de Albacete.

Angelus Apátrida: "We Stand Alone."

  El último adelanto en formato videoclip que la banda utilizaba para presentarnos su último plástico era "We Stand Alone" del que la banda comentaba:

"Speed Metal con ritmo y fuerza. Pegadizo pero feroz. "We Stand Alone" manda un mensaje a la unidad, de cuidar a la familia y amigos cercanos y defenderlos. Sin lugar a dudas va a ser un buen himno para las futuras giras, cantándola bien alto con un puño en alto y con una cerveza en la otra mano...¡Esperamos que lo disfrutéis!"

Es precisamente de "We Stand Alone" del que os quiero dejar un pequeño fragmento en tablatura para guitarra, en afinación standard para que paséis un buen rato tocando con la rabia y la destreza de Guillermo Izquierdo y David G. Álvarez.


Un saludo.

Oír Tema.



Tabs fácil de... We Stand Alone. Angelus Apátrida.


1.------------------------|

2.------------------------|

3.-3-5-3------------------|

4.-3-5-3------------------|

5.------------------------|

6.-------3-3-3-3-3-3-3-3--|


1.------------------------|

2.------------------------|

3.-3-5-6------------------|

4.-3-5-6------------------|

5.------------------------|

6.-------3-3-3-3-3-3-3-3--|


1.------------------------|

2.------------------------|

3.-3-5-3------------------|

4.-3-5-3------------------|

5.------------------------|

6.-------3-3-3-3-3-3-3-3--|



1.---------|

2.---------|

3.---------|

4.-3-5-6---|

5.-1-3-4---|

6.------|...


(2:22)

1.-----------8----7---5---|

2.----/10-----------------|

3.---------5----5---5----5|

4.-/7---------------------|

5.------------------------|

6.------------------------|


1.------------------------|

2.-/9--(10)---------------|

3.-----------9h10p9p7h9p7-|

4.------------------------|

5.------------------------|

6.------------------------|


1.--------------|

2.--------------|

3.--------------|

4.-10-9h10p9p7--|

5.--------------|

6.-----------|...


 Quieres saber más sobre Angelus Apátrida y su nuevo disco puedes pasarte por su web oficial o leer alguna de las críticas del mismo.

Un artículo de TabsFácil.es.


Comentarios

Lo Más Visto en Tabs Fácil.es:

Whole Lotta Love: Elegido Mejor Riff de la Historia del Rock.

Guitarrista Autodidacta: 3 Webs Básicas.

La Importancia de las Tablaturas.

Tabs Fácil de... Cada Vez Cadáver. Fito & Fitipaldis.

Cómic de Motörhead.

Acordes de... "Segundo Movimiento: Mierda de Filosofía." Robe.

Tabs fácil de... Electric Sunset. Twanguero.

Acordes para Guitarra de... Resistiré. Barón Rojo.

Tabs Fácil de... Argument About Pie. Paul Gilbert.

Tabs Fácil de... Far Beyond. Frozen Crown.