Última Entrada en Tabs Fácil.es:

Tabs Fácil de... We Stand As One. Burning Witches.

Imagen
Burning Witches nos presentaba el pasado 28 de mayo de 2021 su tercer larga duración, "The Witch Of The North" un disco que no deja indiferente a ningún seguidor del clásico sonido heavy metal. "The Witch Of The North" We Stand As One. Burning Witches. De los trece cortes que componen el último trabajo de las brujas del heavy metal, utilizaron "We Stand As One" para presentarlo el mismo día del disco, un tema cargado de melodía y sonido épico al más puro estilo heavy metal de toda la vida, un muy buen tema, dentro de un muy buen disco que seguro está haciendo pasar un buen rato a todo el que lo escucha. La banda hablaba así de su reciente trabajo: "¡Estamos felices y orgullosas de anunciar el nuevo disco y mostraros la excelente portada! Hemos crecido juntas como equipo y hemos llevado nuestro sonido al siguiente nivel, ¡Burning Witches en 2021 es más heavy y épico que nunca! ¡Conoce a LA BRUJA DEL NORTE y enamórate de nuestra evolución!&qu

Tabs Fácil de... Far Beyond. Frozen Crown.

 

Tabs Fácil de... Far Beyond. Frozen Crown.
 Los italianos Frozen Crown nos presentaban a finales de febrero de 2021 el tema "Far Beyond", un pequeño adelanto de lo que iba a ser su nuevo trabajo, tercero en su carrera, que lleva por título "Winterbane" y que salía a la luz el 23 de abril de este mismo año.




 Aprovechando la ocasión, la banda presentaba los nuevos componentes de la banda, Fabiola “Sheena” Bellomo (guitarra), Francesco Zof (bajo) y Niso Tomasini (batería) que se incorporaban a la banda tras la salida de los antiguos miembros.

 La banda hablaba así de su nuevo trabajo:
""Winterbane" es el tercer disco de Frozen Crown y, con mucho, el más oscuro de nuestros trabajos..."




Far Beyond: Primer adelanto de WinterBane.

 "Far Beyond" el tercer corte del disco, era el tema elegido para presentarnos el disco y componentes de la banda y es, precisamente, del que hoy os quiero dejar un pequeño fragmento en tablatura para guitarra, para los amantes de las guitarras y las melodías épicas, "Far Beyond" de Frozen Crown
Un saludo. 






Tabs Fácil de... Far Beyond. Frozen Crown.



1.----5-7-/10-----5-7-----|
2.-/8----------/8-----/7--|
3.------------------------|
4.------------------------|
5.------------------------|
6.------------------------|

1.------------------------|
2.------------------------|
3.------------------------|
4.-----2-5-4---2----------|
5.-3-5-------5---5-3---3-5|
6.------------------------|

1.--------|
2.--------|
3.-----4--|
4.-2-5-2--|
5.--------|
6.-----|...

(0:20)

1.------------------------|
2.-/7-8-8--/8-7h8p7p5-5-7-7
3.------------------------|
4.------------------------|
5.------------------------|
6.------------------------|

1.------------------|
2.---5-7-8-7-5------|
3.-5-----------7-5--|
4.------------------|
5.------------------|
6.---------------|...

(1:20)

1.-7-----5-----7-----3----|
2.---5-5---5-5---5-5---5-5|
3.------------------------|
4.------------------------|
5.------------------------|
6.------------------------|

1.-3-2-0-5--3p2p0-0--0-0-0|
2.------------------------|
3.------------------------|
4.------------------------|
5.------------------------|
6.------------------------|

1.-3p2p0-0-3p2p0--|
2.----------------|
3.----------------|
4.----------------|
5.----------------|
6.----------------|

1.-7-----5-----7-----3----|
2.---5-5---5-5---5-5---5-5|
3.------------------------|
4.------------------------|
5.------------------------|
6.------------------------|

1.-3-2-0-5--3p2p0-0--0-0-0|
2.------------------------|
3.------------------------|
4.------------------------|
5.------------------------|
6.------------------------|

1.-3p2p0-0--0-0-0--3p2p0--|
2.------------------------|
3.------------------------|
4.------------------------|
5.------------------------|
6.---------------------|...

Comentarios

Lo Más Visto en Tabs Fácil.es:

Whole Lotta Love: Elegido Mejor Riff de la Historia del Rock.

Guitarrista Autodidacta: 3 Webs Básicas.

La Importancia de las Tablaturas.

Tabs Fácil de... Cada Vez Cadáver. Fito & Fitipaldis.

Cómic de Motörhead.

Acordes de... "Segundo Movimiento: Mierda de Filosofía." Robe.

Tabs fácil de... Electric Sunset. Twanguero.

Acordes para Guitarra de... Resistiré. Barón Rojo.

Tabs Fácil de... Argument About Pie. Paul Gilbert.