Última Entrada en Tabs Fácil.es:

Tabs Fácil de... We Stand As One. Burning Witches.

Imagen
Burning Witches nos presentaba el pasado 28 de mayo de 2021 su tercer larga duración, "The Witch Of The North" un disco que no deja indiferente a ningún seguidor del clásico sonido heavy metal. "The Witch Of The North" We Stand As One. Burning Witches. De los trece cortes que componen el último trabajo de las brujas del heavy metal, utilizaron "We Stand As One" para presentarlo el mismo día del disco, un tema cargado de melodía y sonido épico al más puro estilo heavy metal de toda la vida, un muy buen tema, dentro de un muy buen disco que seguro está haciendo pasar un buen rato a todo el que lo escucha. La banda hablaba así de su reciente trabajo: "¡Estamos felices y orgullosas de anunciar el nuevo disco y mostraros la excelente portada! Hemos crecido juntas como equipo y hemos llevado nuestro sonido al siguiente nivel, ¡Burning Witches en 2021 es más heavy y épico que nunca! ¡Conoce a LA BRUJA DEL NORTE y enamórate de nuestra evolución!&qu

Tabs Fácil de... Cada Vez Cadáver. Fito & Fitipaldis.

 

Tabs Fácil de... Cada Vez Cadáver. Fito & Fitipaldis.

  Fito & Fitipaldis regresa al panorama musical después de siete años de sequía, y lo hace a lo grande, como nos tiene acostumbrados, con el tema "Cada Vez Cadáver."




Siete años han tenido que pasar para escuchar temas nuevos de Fito & Fitipaldis, en concreto un tema que es el adelanto de su nuevo esperado disco, que, verá la luz en los primeros días del otoño, en concreto el 24 de septiembre.

 Mientras, ya podemos escuchar "Cada Vez Cadáver" un tema "muy Fito", cuya letra, como nos cuenta el propio Fito en un comunicado oficial: “...Tiene aire de carta y llega como una flecha a su destino, directa a los oídos de quienes la escuchan.”

Desde TabsFácil.es, como viene siendo habitual, quiero dejarte un pequeño fragmento en Tablatura fácil para guitarra, una tablatura que he llevado a mi terreno, para que pases un buen rato tocando la guitarra, practicando y escuchando a un grande de la música pop/rock española.

Un Saludo.

Oir Tema.





Tabs Fácil de... Cada Vez Cadáver. Fito & Fitipaldis.


1.-----------------------|

2.-----------------------|

3.-------4-/6-4-----4-/6-4

4.-----7--------/7-------|

5.-7h9-------------------|

6.-----------------------|


1.-----------------------|

2.-----------------------|

3.----------------------7|

4.-7--------------------7|

5.----7h9--7h9p7--7-7-7--|

6.-----------------------|


1.-----------------------|

2.-----------------------|

3.-7-6--------4-/6-4--4-/6

4.-7-7------7------------|

5.------7h9--------------|

6.-----------------------|


1.-----------------------|

2.-----------------------|

3.-4--------------------/6

4.---7-/9------------7---|

5.--------7h9--7h9p7-----|

6.-----------------------|


1.-----------------------|

2.-----------------------|

3.-4------------------4-/6

4.---7--------------7----|

5.------7--7-7--7h9------|

6.-----------------------|


1.-----------------------|

2.-----------------------|

3.-4--4-/6-4-------------|

4.-----------7-7-/9-7----|

5.---------------------7h9

6.-----------------------|


1.--------------------|

2.--------------------|

3.--------------------|

4.-7--9(11)(9)-7---7--|

5.---------------9----|

6.-----------------|...


La

Nunca fui lo que no pude ser

Re

y pudiera ser que sólo soy

                      La

lo que he podido.

                        Re

Soy el halcón que ya no quiere ver


y aprendió a ponerse la capucha

   La

el solito...

Comentarios

Lo Más Visto en Tabs Fácil.es:

Whole Lotta Love: Elegido Mejor Riff de la Historia del Rock.

Guitarrista Autodidacta: 3 Webs Básicas.

La Importancia de las Tablaturas.

Cómic de Motörhead.

Acordes de... "Segundo Movimiento: Mierda de Filosofía." Robe.

Tabs fácil de... Electric Sunset. Twanguero.

Acordes para Guitarra de... Resistiré. Barón Rojo.

Tabs Fácil de... Argument About Pie. Paul Gilbert.

Tabs Fácil de... Far Beyond. Frozen Crown.