Última Entrada en Tabs Fácil.es:

Tabs Fácil de... We Stand As One. Burning Witches.

Imagen
Burning Witches nos presentaba el pasado 28 de mayo de 2021 su tercer larga duración, "The Witch Of The North" un disco que no deja indiferente a ningún seguidor del clásico sonido heavy metal. "The Witch Of The North" We Stand As One. Burning Witches. De los trece cortes que componen el último trabajo de las brujas del heavy metal, utilizaron "We Stand As One" para presentarlo el mismo día del disco, un tema cargado de melodía y sonido épico al más puro estilo heavy metal de toda la vida, un muy buen tema, dentro de un muy buen disco que seguro está haciendo pasar un buen rato a todo el que lo escucha. La banda hablaba así de su reciente trabajo: "¡Estamos felices y orgullosas de anunciar el nuevo disco y mostraros la excelente portada! Hemos crecido juntas como equipo y hemos llevado nuestro sonido al siguiente nivel, ¡Burning Witches en 2021 es más heavy y épico que nunca! ¡Conoce a LA BRUJA DEL NORTE y enamórate de nuestra evolución!&qu

Tabs fácil de... Rock Or Bust. Ac/Dc.

  

Tabs Fácil de... Rock or Bust. AC/DC.

 "Rock or Bust" es el título que lleva el álbum número 16 en la extensa carrera de los australianos AC/DC y que salió a la luz a finales del 2014. Cómo curiosidad hay que decir, que es el álbum de estudio más corto jamás publicado por la banda con menos de 35 minutos de duración.

 La canción elegida para el segundo sencillo del disco fue la que da título al disco "Rock or Bust" un tema que bien define el estilo de la banda y en el que encontramos un sencillo riff del que hoy os quiero dejar un pequeño fragmento en tablatura para guitarra.


  Un saludo.

Oír Tema.


Tabs Fácil de... Rock or Bust. AC/DC.


1.------------------------|
2.-----------2-2-2--------|
3.-----------------1-1-1--|
4.------------------------|
5.--1-1-1-1---------------|
6.------------------------|

1.------------------------|
2.-----------------2-2-2--|
3.------------------------|
4.-1-1-1------------------|
5.--------1-1-1-1---------|
6.------------------------|

1.------------------------|
2.------------------------|
3.-1-1-1------------------|
4.--------1-1-1--6h8------|
5.------------------------|
6.-------------------3/4h6|

1.------------------------|
2.------------------------|
3.------------------------|
4.-6h8--------6h8-------6h8
5.------------------------|
6.-----3/4h6------3/4h6---|

1.------------------------|
2.------------------2-2-2-|
3.------------------------|
4.------------------------|
5.---------1-1-1-1--------|
6.--3/4h6-----------------|

1.---------------|
2.---------------|
3.--1-1-1--------|
4.--------1-1-1--|
5.---------------|
6.------------|...

Comentarios

Lo Más Visto en Tabs Fácil.es:

Whole Lotta Love: Elegido Mejor Riff de la Historia del Rock.

Guitarrista Autodidacta: 3 Webs Básicas.

La Importancia de las Tablaturas.

Tabs Fácil de... Cada Vez Cadáver. Fito & Fitipaldis.

Cómic de Motörhead.

Acordes de... "Segundo Movimiento: Mierda de Filosofía." Robe.

Tabs fácil de... Electric Sunset. Twanguero.

Acordes para Guitarra de... Resistiré. Barón Rojo.

Tabs Fácil de... Argument About Pie. Paul Gilbert.

Tabs Fácil de... Far Beyond. Frozen Crown.