Última Entrada en Tabs Fácil.es:

Tabs Fácil de... We Stand As One. Burning Witches.

Imagen
Burning Witches nos presentaba el pasado 28 de mayo de 2021 su tercer larga duración, "The Witch Of The North" un disco que no deja indiferente a ningún seguidor del clásico sonido heavy metal. "The Witch Of The North" We Stand As One. Burning Witches. De los trece cortes que componen el último trabajo de las brujas del heavy metal, utilizaron "We Stand As One" para presentarlo el mismo día del disco, un tema cargado de melodía y sonido épico al más puro estilo heavy metal de toda la vida, un muy buen tema, dentro de un muy buen disco que seguro está haciendo pasar un buen rato a todo el que lo escucha. La banda hablaba así de su reciente trabajo: "¡Estamos felices y orgullosas de anunciar el nuevo disco y mostraros la excelente portada! Hemos crecido juntas como equipo y hemos llevado nuestro sonido al siguiente nivel, ¡Burning Witches en 2021 es más heavy y épico que nunca! ¡Conoce a LA BRUJA DEL NORTE y enamórate de nuestra evolución!&qu

Tabs fácil de... Andromeda. Ensiferum.

Tabs fácil de... Andromeda. Ensiferum.
 
 En julio de 2020 los finlandeses Ensiferum regresaban al panorama musical después de 3 años de sequía. Y lo hacían por todo lo alto publicando el disco "Thalassic" un disco al mas puro estilo Ensiferum que cautivaba a crítica y fans de todo el mundo.

"Thalassic" Ensiferum.

   Tres años después de "Two Paths" Ensiferum nos presentaba su octavo disco "Thalassic." Un disco cuyas letras nos traen numerosas aventuras, viajes e historias relacionadas con el mar, haciendo referencia al título del disco "Thalassic" palabra griega que significa algo así como relativo al mar... Y un sonido con el que la banda finlandesa, sin desmarcarse de su sonido personal y el Folk/Viking Metal que los caracteriza, han conseguido dar un salto evolutivo importante, como bien dice su vocalista Sami Hinkka:

"...Creo que logramos dar un paso adelante musicalmente y también utilizamos las mejores partes de nuestro viejo sonido clásico..." "... Hay muchas marcas registradas en Ensiferum: hermosas melodías folk, riffs increíbles, una buena mezcla de diferentes voces y excelentes coros..."

 Se nota el aire fresco que aporta su nuevo teclista Pekka Montin que también aporta energía y calidad a las diferentes voces y coros a las que hacía referencia Sami Hinkka. Recordemos que el teclista Pekka Montin se unió a la banda en febrero de 2020.

  "Andromeda" Ensiferum.

  Su primer single y presentación del álbum se llamaba "Andromeda" un temazo en el que las melodías de guitarra no paran de hacerte vibrar, del que también grabaron video y del que, te quiero dejar un pequeño fragmento en Tablatura para guitarra, concretamente de la melodía o riff principal del tema. Para todos los amantes de las guitarras de Ensiferum, y de las guitarras Viking/Folk Metal.


Un saludo.

Ver vídeo.


Tabs fácil de... Andromeda. Ensiferum.

(0:08)

1.------------------------|

2.------------------------|

3.-4----------------------|

4.---4h5p4--5-4-2--4h5p4--|

5.----------------------5-5

6.------------------------|


1.------------------------|

2.------------------------|

3.-------------4----------|

4.-4h5p4---2-----4h5p4--5-4

5.-------5----------------|

6.------------------------|


1.-------------------|

2.-------------------|

3.-------------------|

4.-2--4h5p4---5-4-2--|

5.----------5--------|

6.-------------------|


1.------------------------|

2.------------------------|

3.-5--4-2-4--2h4p2-----2-4|

4.-----------------4-5----|

5.------------------------|

6.------------------------|


1.------------------------|

2.----------------4h5p4---|

3.-0-----5--4-2-4-------5-|

4.---2--------------------|

5.------------------------|

6.------------------------|


1.----------------|

2.----------------|

3.-4-2------------|

4.-----5-4-5-4-2--|

5.----------------|

6.-------------|...


(0:23)

1.------------------------|

2.-5--5-5h7p5--5-7--7-7h8p7

3.------------------------|

4.------------------------|

5.------------------------|

6.------------------------|


1.------------------------7

2.-7-8--8-8h10p8-8-10--10-|

3.------------------------|

4.------------------------|

5.------------------------|

6.------------------------|


1.-------------|

2.-8-7--5-7-5--|

3.-------------|

4.-------------|

5.-------------|

6.----------|...

Comentarios

Lo Más Visto en Tabs Fácil.es:

Whole Lotta Love: Elegido Mejor Riff de la Historia del Rock.

Guitarrista Autodidacta: 3 Webs Básicas.

La Importancia de las Tablaturas.

Tabs Fácil de... Cada Vez Cadáver. Fito & Fitipaldis.

Cómic de Motörhead.

Acordes de... "Segundo Movimiento: Mierda de Filosofía." Robe.

Tabs fácil de... Electric Sunset. Twanguero.

Acordes para Guitarra de... Resistiré. Barón Rojo.

Tabs Fácil de... Argument About Pie. Paul Gilbert.

Tabs Fácil de... Far Beyond. Frozen Crown.