Última Entrada en Tabs Fácil.es:

Tabs Fácil de... We Stand As One. Burning Witches.

Imagen
Burning Witches nos presentaba el pasado 28 de mayo de 2021 su tercer larga duración, "The Witch Of The North" un disco que no deja indiferente a ningún seguidor del clásico sonido heavy metal. "The Witch Of The North" We Stand As One. Burning Witches. De los trece cortes que componen el último trabajo de las brujas del heavy metal, utilizaron "We Stand As One" para presentarlo el mismo día del disco, un tema cargado de melodía y sonido épico al más puro estilo heavy metal de toda la vida, un muy buen tema, dentro de un muy buen disco que seguro está haciendo pasar un buen rato a todo el que lo escucha. La banda hablaba así de su reciente trabajo: "¡Estamos felices y orgullosas de anunciar el nuevo disco y mostraros la excelente portada! Hemos crecido juntas como equipo y hemos llevado nuestro sonido al siguiente nivel, ¡Burning Witches en 2021 es más heavy y épico que nunca! ¡Conoce a LA BRUJA DEL NORTE y enamórate de nuestra evolución!&qu

Las Mejores Melodías para Guitarra.

  



  He seleccionado para tí 8 Grandes Melodías para Guitarra que seguro que has escuchado cientos de veces y siempre has querido tocar con la guitarra, prepárate para divertirte mientras practicas un buen rato con algunas de las mejores melodías para guitarra, esas melodías que no nos cansamos nunca de escuchar y que reconocemos en el momento, solo que ahora las vamos a tocar nosotros!


Melodías para Guitarra.

  La definición de melodía es clara: "Sucesión de sonidos que por su manera de combinarse resulta musical o agradable de oír." Además se nos quedan grabadas en nuestra cabeza y podemos pasar horas y horas tarareando, es mas, apenas hemos escuchado una nota, ya sabemos de que melodía se trata o a que canción pertenece.


  En esta ocasión he elegido para tí un combinado de algunas de esas melodías, con algunas características en común, como por ejemplo que son de esas partes de canciones que sin ser posiblemente el riff principal, (unas son intros, otras estribillos), si son la parte que más interiorizamos y se nos queda grabada en nuestra memoria.


Practicar Melodías para Guitarra.

  Cuando estás aprendiendo a tocar la guitarra es necesario practicar acordes con sus patrones de rasgueo, escalas y diferentes ejercicios, lo que pasa, es que tarde o temprano nos apetece salir de ese ciclo y comenzar a tocar esas canciones que tanto nos gustan y por las que hemos decidido aprender a tocar la guitarra, por eso, os quiero dejar a continuación unos momentos en tablatura para guitarra con los que salir de la monotonía de la practica habitual y disfrutar con nuestros guitarristas preferidos.

8 Melodías de 8 grandes de la guitarra como pueden ser: Satriani, Santana, Eric Johnson, Steve Vai, Slash, Yngwie Malmsteen, Gary Moore o Eric Clapton...




Parisienne Walkways. Gary Moore.

(0:37) Tiempos del Vídeo.

1.------------------------|
2.--------------15(17)--15|
3.------------------------|
4.------------------------|
5.-12/--7/----------------|
6.----------8/------------|


1.-----------------12-----|
2.-13-12--------------13(15
3.-------14-12-10---------|
4.------------------------|
5.------------------------|
6.------------------------|


1.------------------------|
2.-13(15)-13-12-----------|
3.--------------14-12h14p12
4.------------------------|
5.------------------------|
6.------------------------|


1.------------------------|
2.-------15-13--10-12-12(13
3.------------------------|
4.-12-14------------------|
5.------------------------|
6.------------------------|


1.------------------------|
2.-12-10--------------13-12
3.-------12--10-9---------|
4.----------------12------|
5.------------------------|
6.------------------------|


1.------------------------|
2.------------------------|
3.-14(16)--14-13----------|
4.---------------15--14-12|
5.------------------------|
6.------------------------|

1.---------------------|
2.---------------------|
3.---------------------|
4.-10------------------|
5.-----12/---7/--------|
6.----------------8/---|



Sweet Child O' Mine. Guns and Roses.


1.-------------15----14---|
2.----15------------------|
3.-------14-12----14----14|
4.-12---------------------|
5.------------------------|
6.------------------------|


1.-------------15----14---|
2.----15------------------|
3.-------14-12----14----14|
4.-12---------------------|
5.------------------------|
6.------------------------|


1.-------------15----14---|
2.----15------------------|
3.-------14-12----14----14|
4.-14---------------------|
5.------------------------|
6.------------------------|


1.-------------15----14---|
2.----15------------------|
3.-------14-12----14----14|
4.-14---------------------|
5.------------------------|
6.------------------------|


1.-------------15----14---|
2.----15------------------|
3.-12----14-12----14----14|
4.------------------------|
5.------------------------|
6.------------------------|


1.-------------15----14---|
2.----15------------------|
3.-12----14-12----14----14|
4.------------------------|
5.------------------------|
6.------------------------|

1.-------------15----14---|
2.----15------------------|
3.-------14-12----14----14|
4.-12---------------------|
5.------------------------|
6.------------------------|


1.-------------15----14---|
2.----15------------------|
3.-------14-12----14----14|
4.-12---------------------|
5.------------------------|
6.------------------------|


Black Star. Yngwie Malmsteen.


(1:15) Tiempos del Vídeo.

1.------------------13-14-|
2.-16(17)-16--15-16-------|
3.------------------------|
4.------------------------|
5.------------------------|
6.------------------------|


1.-13--------18(19)-18--16|
2.----15-16---------------|
3.------------------------|
4.------------------------|
5.------------------------|
6.------------------------|


1.-19-18----18-16---------|
2.-------19-------19-18-16|
3.------------------------|
4.------------------------|
5.------------------------|
6.------------------------|


1.--------------|
2.-18-16-15-16--|
3.--------------|
4.--------------|
5.--------------|
6.--------------|


1.------------------13-14-|
2.-16(17)-16--15-16-------|
3.------------------------|
4.------------------------|
5.------------------------|
6.------------------------|


1.-13--------18(19)-18--16|
2.----15-16---------------|
3.------------------------|
4.------------------------|
5.------------------------|
6.------------------------|


1.-19-18----18-16---------|
2.-------19-------19-18-16|
3.------------------------|
4.------------------------|
5.------------------------|
6.------------------------|


1.--------------18-19--16-|
2.-18-16-15-16------------|
3.------------------------|
4.------------------------|
5.------------------------|
6.------------------------|


1.-18--14-16-----18--16-18|
2.------------18----------|
3.------------------------|
4.------------------------|
5.------------------------|
6.---------------------|...




Cliffs of Dover. Eric Johnson.


(0:55) Tiempos del Vídeo.

1.------------------------|
2.------------------------|
3.----------17----14-17/16|
4.-14/12/14----14---------|
5.------------------------|
6.------------------------|


1.------------------------|
2.------------------------|
3.----12-16/14---12-11-14-|
4.-12----------12---------|
5.------------------------|
6.------------------------|


1.------------------------|
2.------------------------|
3.----11-12-14/16----12-16/
4.-12-------------12------|
5.------------------------|
6.------------------------|


1.------------------------|
2.------------------------|
3.-14----11--12-11--------|
4.----12-----------14-12--|
5.-----------------------14
6.------------------------|


For the Love of God. Steve Vai.

1.-----------------12/10-7|
2.--------10-10/12--------|
3.------7-----------------|
4.-7-/9-------------------|
5.------------------------|
6.------------------------|


1.-----------------|
2.-8-10/12--15-10--|
3.-----------------|
4.-----------------|
5.-----------------|
6.-----------------|


1.-----------------12/10-7|
2.--------10-10/12--------|
3.------7-----------------|
4.-7-/9-------------------|
5.------------------------|
6.------------------------|


1.-----------------|
2.-8-10/12--15-10--|
3.-----------------|
4.-----------------|
5.-----------------|
6.-----------------|


1.-----------------12/10-7|
2.--------10-10/12--------|
3.------7-----------------|
4.-7-/9-------------------|
5.------------------------|
6.------------------------|


1.-----------------12/10-7|
2.-8-10/12--15-10---------|
3.------------------------|
4.------------------------|
5.------------------------|
6.------------------------|


1.------------------------|
2.-8-10-/12--12-12-12/10--|
3.------------------------|
4.------------------------|
5.------------------------|
6.------------------------|


1.------------------|
2.-5-/8-7-----------|
3.--------9-7--7h9--|
4.------------------|
5.------------------|
6.------------------|


Always with me... Joe Satriani.

1.------------------------|
2.---4--5-/7--/9--7-5-4--5|
3.-4----------------------|
4.------------------------|
5.------------------------|
6.------------------------|


1.------------------------|
2.------------------------|
3.-4/6--/4--6--8--9--8--6-|
4.------------------------|
5.------------------------|
6.------------------------|


1.------------------------|
2.------------------------|
3.----------4------6--/8-6|
4.--4---4-4----4-4--------|
5.------------------------|
6.------------------------|


1.------------------------|
2.---5-/7--/9--7--5-4--2--|
3.-4---------------------4|
4.------------------------|
5.------------------------|
6.------------------------|


Smooth. Santana.

1.-------------------7-7(8)
2.-----8---/10--9-10------|
3.-7h9---9----------------|
4.------------------------|
5.------------------------|
6.------------------------|


1.-(7)----7-8-------------|
2.-----10-----10-10--17(15)
3.------------------------|
4.------------------------|
5.------------------------|
6.------------------------|


1.------------------7-/8-7|
2.-15(17)--10--9h10-------|
3.------------------------|
4.------------------------|
5.------------------------|
6.------------------------|


1.----7-8--------|
2.-10-----10-10--|
3.---------------|
4.---------------|
5.---------------|
6.---------------|



Layla. Derek and the Dominos.


1.-------10-13-10----10---|
2.-10-13----------13------|
3.------------------------|
4.------------------------|
5.------------------------|
6.------------------------|


1.-13(15)-13-12----10-----|
2.--------------13-----10-|
3.------------------------|
4.------------------------|
5.------------------------|
6.------------------------|


1.----10-13-10----10-15(17)
2.-13----------13---------|
3.------------------------|
4.------------------------|
5.------------------------|
6.------------------------|


1.-15-12--------|
2.-------13-15--|
3.--------------|
4.--------------|
5.--------------|
6.--------------|

Comentarios

Lo Más Visto en Tabs Fácil.es:

Whole Lotta Love: Elegido Mejor Riff de la Historia del Rock.

Guitarrista Autodidacta: 3 Webs Básicas.

La Importancia de las Tablaturas.

Tabs Fácil de... Cada Vez Cadáver. Fito & Fitipaldis.

Cómic de Motörhead.

Acordes de... "Segundo Movimiento: Mierda de Filosofía." Robe.

Tabs fácil de... Electric Sunset. Twanguero.

Acordes para Guitarra de... Resistiré. Barón Rojo.

Tabs Fácil de... Argument About Pie. Paul Gilbert.

Tabs Fácil de... Far Beyond. Frozen Crown.