Última Entrada en Tabs Fácil.es:

Tabs Fácil de... We Stand As One. Burning Witches.

Imagen
Burning Witches nos presentaba el pasado 28 de mayo de 2021 su tercer larga duración, "The Witch Of The North" un disco que no deja indiferente a ningún seguidor del clásico sonido heavy metal. "The Witch Of The North" We Stand As One. Burning Witches. De los trece cortes que componen el último trabajo de las brujas del heavy metal, utilizaron "We Stand As One" para presentarlo el mismo día del disco, un tema cargado de melodía y sonido épico al más puro estilo heavy metal de toda la vida, un muy buen tema, dentro de un muy buen disco que seguro está haciendo pasar un buen rato a todo el que lo escucha. La banda hablaba así de su reciente trabajo: "¡Estamos felices y orgullosas de anunciar el nuevo disco y mostraros la excelente portada! Hemos crecido juntas como equipo y hemos llevado nuestro sonido al siguiente nivel, ¡Burning Witches en 2021 es más heavy y épico que nunca! ¡Conoce a LA BRUJA DEL NORTE y enamórate de nuestra evolución!&qu

Cómo Tocar tu Primer Blues.

 



  Aprende a tocar Blues de una manera rápida y sencilla, entiende su estructura más básica y sumérgete en uno de los estilos que más han influido en el desarrollo posterior de la música moderna actual, tal y como la conocemos...

Cómo Tocar Blues.

  La estructura básica de un blues convencional consta de 12 compases, los "12 bar blues" de los que habrás oído hablar más de una vez...

I    I    I    I    IV    IV    I    I    V   IV    I    I

  Fundamentalmente un blues consta de 3 acordes: el Grado I o Fundamental el Grado IV y el Grado V... Para localizar esos acordes o Grados necesitamos la escala natural:

DO  RE  MI  FA  SOL  LA  SI  DO 

 Nombrando como Grado I al acorde que va a hacer de fundamental o referencia, podemos localizar los siguientes contando hacia adelante:


  Nuestro primer Blues va a estar en la tonalidad de Mi por lo que utilizando la mano podemos ver que los tres acordes de nuestro blues van a ser: Mi Grado I, La Grado IV y Si Grado V...

  
  Así quedaría una estructura básica de un blues:

I    I    I    I    IV    IV    I    I    V   IV    I    I

Mi Mi Mi Mi La La Mi Mi Si La Mi Mi

 En esa estructura, cada compás lo dividiremos en cuatro tiempos, utiliza para ello el metrónomo o simplemente marca los tiempos con el pie mientras tocas un acorde en cada compás... 


  Puedes utilizar el acorde de Mi Mayor o por ejemplo Mi Mayor 7ª ya que los acordes de 7ª se usan mucho en la música blues.

  Bien, en realidad ya estás tocando tu primer blues pero, vamos a hacerlo algo más dinámico y divertido sustituyendo los acordes de algún compas por pequeños licks:

  Por el acorde Mi:

1.----0---3-0---0--------|
2.--0---0-----3----------|
3.-----------------------|
4.-----------------------|
5.-----------------------|
6.-----------------------|

 Por el acorde de La:

1.---0---3/5--3---0------|
2.-0---0--------3--------|
3.-----------------------|
4.-----------------------|
5.-----------------------|
6.-----------------------|


  Ahora sí tenemos un blues más dinámico, esta secuencia de compases la podemos repetir varias veces, para ello vamos a crear un nexo entre final de una secuencia y principio de la otra, un desenlace, lo que se viene llamando un turnarounds. El turnarounds va a sustituir los compases 11 y 12, para nuestro primer blues, nos podría valer algo así:

1.---0-----0-----0-------|
2.-3---3-2---2-1--1-0----0
3.--------------------2h3|
4.-----------------------|
5.-----------------------|
6.-----------------------|


  Y el resultado final:

Tocando nuestro primer blues.

1.--0----0----0----0-----|
2.--0----0----0----0-----|
3.--1----1----1----1-----|
4.--2----2----2----2-----|
5.--2----2----2----2-----|
6.--0----0----0----0-----|

1.----0---3-0---0--------|
2.--0---0-----3----------|
3.-----------------------|
4.-----------------------|
5.-----------------------|
6.-----------------------|

1.--0----0----0----0-----|
2.--0----0----0----0-----|
3.--1----1----1----1-----|
4.--2----2----2----2-----|
5.--2----2----2----2-----|
6.--0----0----0----0-----|

1.----0---3-0---0--------|
2.--0---0-----3----------|
3.-----------------------|
4.-----------------------|
5.-----------------------|
6.-----------------------|

1.--0----0----0----0-----|
2.--2----2----2----2-----|
3.--2----2----2----2-----|
4.--2----2----2----2-----|
5.--0----0----0----0-----|
6.-----------------------|

1.---0---3/5--3---0------|
2.-0---0--------3--------|
3.-----------------------|
4.-----------------------|
5.-----------------------|
6.-----------------------|


1.--0----0----0----0-----|
2.--0----0----0----0-----|
3.--1----1----1----1-----|
4.--2----2----2----2-----|
5.--2----2----2----2-----|
6.--0----0----0----0-----|

1.----0---3-0---0--------|
2.--0---0-----3----------|
3.-----------------------|
4.-----------------------|
5.-----------------------|
6.-----------------------|

1.--2----2----2----2-----|
2.--4----4----4----4-----|
3.--4----4----4----4-----|
4.--4----4----4----4-----|
5.--2----2----2----2-----|
6.-----------------------|

1.--0----0----0----0-----|
2.--2----2----2----2-----|
3.--2----2----2----2-----|
4.--2----2----2----2-----|
5.--0----0----0----0-----|
6.-----------------------|

1.---0-----0-----0-------|
2.-3---3-2---2-1--1-0----0
3.--------------------2h3
4.-----------------------|
5.-----------------------|
6.-----------------------|

  Ahora que conoces la estructura básica de un blues, ha llegado la hora de que seas tu quien la desarrolle a tu manera, primero escogiendo otros acordes, creando tus propios licks y turnarounds y por que no desarrollando otras estructuras, un buen ejercicio para definir tu estilo...

Comentarios

Lo Más Visto en Tabs Fácil.es:

Whole Lotta Love: Elegido Mejor Riff de la Historia del Rock.

Guitarrista Autodidacta: 3 Webs Básicas.

La Importancia de las Tablaturas.

Tabs Fácil de... Cada Vez Cadáver. Fito & Fitipaldis.

Cómic de Motörhead.

Acordes de... "Segundo Movimiento: Mierda de Filosofía." Robe.

Tabs fácil de... Electric Sunset. Twanguero.

Acordes para Guitarra de... Resistiré. Barón Rojo.

Tabs Fácil de... Argument About Pie. Paul Gilbert.

Tabs Fácil de... Far Beyond. Frozen Crown.