Última Entrada en Tabs Fácil.es:

Tabs Fácil de... We Stand As One. Burning Witches.

Imagen
Burning Witches nos presentaba el pasado 28 de mayo de 2021 su tercer larga duración, "The Witch Of The North" un disco que no deja indiferente a ningún seguidor del clásico sonido heavy metal. "The Witch Of The North" We Stand As One. Burning Witches. De los trece cortes que componen el último trabajo de las brujas del heavy metal, utilizaron "We Stand As One" para presentarlo el mismo día del disco, un tema cargado de melodía y sonido épico al más puro estilo heavy metal de toda la vida, un muy buen tema, dentro de un muy buen disco que seguro está haciendo pasar un buen rato a todo el que lo escucha. La banda hablaba así de su reciente trabajo: "¡Estamos felices y orgullosas de anunciar el nuevo disco y mostraros la excelente portada! Hemos crecido juntas como equipo y hemos llevado nuestro sonido al siguiente nivel, ¡Burning Witches en 2021 es más heavy y épico que nunca! ¡Conoce a LA BRUJA DEL NORTE y enamórate de nuestra evolución!&qu

Solo Necesitas Una... 10 Riffs Tocados con una Sola Cuerda.


  Aprende a tocar 10 riffs de guitarra sencillos y conocidos y lo mejor de todo, que sólo necesitas una cuerda! Pero no, no hace falta que quites las demás...

  Posiblemente, lo primero que buscamos los guitarristas principiantes es aprender algunas melodías fáciles de tocar para guitarra. Es buena idea, melodías conocidas que reconocemos de memoria serán más fáciles de aprender, además del efecto positivo que causarán en nuestra autoestima para seguir aprendiendo.

  Por otro lado, uno de los miedos más reconocidos por los que quieren aprender a tocar la guitarra es, la sensación de ser incapaces de tocar seis cuerdas al unísono... Todo es cuestión de práctica, en muy poco tiempo, en seguida se consigue darse cuenta de lo equivocados que estábamos. Aún así, si eres de los que tienen ese temor, hoy te quiero dejar unos riffs tocados en una sola cuerda, para que vayas cogiendo soltura y confianza.

  Un decálogo de 10 riffs, con Tablatura para guitarra incluida, en los que encontrarás algunos que en su contexto original, se tocan tal cual, en una sola cuerda, y otros, que se han modificado para tocarlos en una sola, siempre, y aunque la mayoría de los riffs que vas a encontrar estén tocados en la sexta cuerda, recuerda que no tiene porque ser siempre en la misma, como verás en los dos últimos ejemplos.

  Afina tu guitarra y prepárate para pasar un buen rato de práctica y diversión con diez riffs para guitarra tocados en una sola cuerda.







1. Misirlou. Dick Dale. (0:13)

1.--------------------------|
2.--------------------------|
3.--------------------------|
4.--------------------------|
5.--------------------------|
6.-//0-0-0-0-0-0-0-0-0-0-0-0

1.--------------------------|
2.--------------------------|
3.--------------------------|
4.--------------------------|
5.--------------------------|
6.-0-0-0-0-0-0-0-0-0-0-0h4/5

1.--------------------------|
2.--------------------------|
3.--------------------------|
4.--------------------------|
5.--------------------------|
6.-/7--7/10--8-7-7-7-7-7-7-7

1.--------------------------|
2.--------------------------|
3.--------------------------|
4.--------------------------|
5.--------------------------|
6.-7-7//--0-0-0--0h4/5-/7---|

1.--------------------------|
2.--------------------------|
3.--------------------------|
4.--------------------------|
5.--------------------------|
6.-7/10--8-7-7-7-7-7-7--8-7-|

1.--------------------------|
2.--------------------------|
3.--------------------------|
4.--------------------------|
5.--------------------------|
6.-8-7-5--7-5-7-5-4--4-4-4-4

1.--------------------------|
2.--------------------------|
3.--------------------------|
4.--------------------------|
5.--------------------------|
6.-4-4-4-4--7-5-7-5-4--5-4-5

1.--------------------------|
2.--------------------------|
3.--------------------------|
4.--------------------------|
5.--------------------------|
6.-4--1--0-0-0-0-0-0-0-0----|


2. Du Hast. Rammstein. (0:40)

1.--------------------------|
2.--------------------------|
3.--------------------------|
4.--------------------------|
5.--------------------------|
6.-5p3--0-0--0-0-0--0-0-0--5/3

1.--------------------------|
2.--------------------------|
3.--------------------------|
4.--------------------------|
5.--------------------------|
6.-0--0-0--0-0-0--0-0-0--3/5

1.--------------------|
2.--------------------|
3.--------------------|
4.--------------------|
5.--------------------|
6.-0-0--0-0-0--0-0-0--|



3. Satisfaction. The Rolling Stones. (0:53)

1.--------------------------|
2.--------------------------|
3.--------------------------|
4.--------------------------|
5.--------------------------|
6.-7-7--7-9-10--10-10--9-9--|


1.--------------------------|
2.--------------------------|
3.--------------------------|
4.--------------------------|
5.--------------------------|
6.-7-7-7--7-9-10--10-10--9-9

1.---------|
2.---------|
3.---------|
4.---------|
5.---------|
6.-7-7-7---|


4. Peter Gunn Theme. The Blues Brothers. (1:08)

1.--------------------------|
2.--------------------------|
3.--------------------------|
4.--------------------------|
5.--------------------------|
6.-0-0-2-0--2/3--0--5-4--0-0

1.--------------------------|
2.--------------------------|
3.--------------------------|
4.--------------------------|
5.--------------------------|
6.-2-0--2/3--0--5-4--0-0-2-0

1.--------------|
2.--------------|
3.--------------|
4.--------------|
5.--------------|
6.-2/3--0--5-4--|


5. Seven Nation Army. The White Stripes. (1:24)

1.--------------------------|
2.--------------------------|
3.--------------------------|
4.--------------------------|
5.--------------------------|
6.-/12--12-15-12--10-8-7--/12

1.--------------------------|
2.--------------------------|
3.--------------------------|
4.--------------------------|
5.--------------------------|
6.-12-15-12--10-8-7--/12--12-

1.--------------------------|
2.--------------------------|
3.--------------------------|
4.--------------------------|
5.--------------------------|
6.-15-12--10-8-7--/12--12-15

1.--------------------------|
2.--------------------------|
3.--------------------------|
4.--------------------------|
5.--------------------------|
6.-12--10--8-10-8-7--3-3-3-3

1.---------------|
2.---------------|
3.---------------|
4.---------------|
5.---------------|
6.-3--5-5-5-5-5--|






6. Smells Like Teen Spirit. Nirvana. (0:03)

1.--------------------------|
2.--------------------------|
3.--------------------------|
4.--------------------------|
5.--------------------------|
6.-/-1--1-1--6-6--4--4-4--9-9

1.--------------------------|
2.--------------------------|
3.--------------------------|
4.--------------------------|
5.--------------------------|
6.--1--1-1--6-6--4--4-4--9-9








7. Beat It. Michael Jackson. (1:04)

1.--------------------------|
2.--------------------------|
3.--------------------------|
4.--------------------------|
5.--------------------------|
6.-0--3--7--/14-12--/14-12-10

1.--------------------------|
2.--------------------------|
3.--------------------------|
4.--------------------------|
5.--------------------------|
6.-10--0--3--7--/14-12--/14-

1.--------------|
2.--------------|
3.--------------|
4.--------------|
5.--------------|
6.-12--10--x-x--|



8. Sunshine of Your Love. Cream. (1:36)


1.--------------------------|
2.--------------------------|
3.--------------------------|
4.--------------------------|
5.--------------------------|
6.-10-10--8-10--5-4-3--10-10/

1.--------------------------|
2.--------------------------|
3.--------------------------|
4.--------------------------|
5.--------------------------|
6.-13-10--10-10--8-10--5-4-3


1.--------------|
2.--------------|
3.--------------|
4.--------------|
5.--------------|
6.-10-10/13-10--|


9. Thunderstrusck. AC/DC.




1.--------------------------|
2.-0-4p0-7p0-4p0-7p0-4p0-7p0
3.--------------------------|
4.--------------------------|
5.--------------------------|
6.--------------------------|

1.--------------------------|
2.-4p0-7p0-4p0-7p0-4p0-7p0--|
3.--------------------------|
4.--------------------------|
5.--------------------------|
6.--------------------------|

1.--------------------------|
2.-5p0-8p0-5p0-8p0-5p0-8p0--|
3.--------------------------|
4.--------------------------|
5.--------------------------|
6.--------------------------|

1.--------------------------|
2.-0-4p0-7p0-4p0-7p0-4p0-7p0
3.--------------------------|
4.--------------------------|
5.--------------------------|
6.--------------------------|

1.--------------------------|
2.-4p0-7p0-4p0-7p0-4p0-7p0--|
3.--------------------------|
4.--------------------------|
5.--------------------------|
6.--------------------------|


1.--------------------------|
2.-12p0-10p0-9p0-10p0-9p0-7p0
3.--------------------------|
4.--------------------------|
5.--------------------------|
6.--------------------------|

1.-----------------------|
2.--9p0-5p0-7p0-4p0-5p0--|
3.-----------------------|
4.-----------------------|
5.-----------------------|
6.-----------------------|


1.---------------------|
2.-4p0-5p0-4p0-5p0-4p0-|
3.---------------------|
4.---------------------|
5.---------------------|
6.---------------------|


10. Wasted years. Iron Maiden.




1.-12-0-0-0-0-7--0-0-0-0-8--|
2.--------------------------|
3.--------------------------|
4.--------------------------|
5.--------------------------|
6.--------------------------|

1.-0-0-0-0-5--0-0-0-0-7p0-0-0
2.--------------------------|
3.--------------------------|
4.--------------------------|
5.--------------------------|
6.--------------------------|

1.--3p0-0-0--5--0-0-0-0-2---|
2.--------------------------|
3.--------------------------|
4.--------------------------|
5.--------------------------|
6.--------------------------|



1.-0-0-0-0-3---0-0-0-0-5--0-0
2.--------------------------|
3.--------------------------|
4.--------------------------|
5.--------------------------|
6.--------------------------|

1.--0-0-2--0-0-3p0-0--0-----|
2.--------------------------|
3.--------------------------|
4.--------------------------|
5.--------------------------|
6.--------------------------|

Comentarios

Lo Más Visto en Tabs Fácil.es:

Whole Lotta Love: Elegido Mejor Riff de la Historia del Rock.

Guitarrista Autodidacta: 3 Webs Básicas.

La Importancia de las Tablaturas.

Tabs Fácil de... Cada Vez Cadáver. Fito & Fitipaldis.

Cómic de Motörhead.

Acordes de... "Segundo Movimiento: Mierda de Filosofía." Robe.

Tabs fácil de... Electric Sunset. Twanguero.

Acordes para Guitarra de... Resistiré. Barón Rojo.

Tabs Fácil de... Argument About Pie. Paul Gilbert.

Tabs Fácil de... Far Beyond. Frozen Crown.