Última Entrada en Tabs Fácil.es:

Tabs Fácil de... We Stand As One. Burning Witches.

Imagen
Burning Witches nos presentaba el pasado 28 de mayo de 2021 su tercer larga duración, "The Witch Of The North" un disco que no deja indiferente a ningún seguidor del clásico sonido heavy metal. "The Witch Of The North" We Stand As One. Burning Witches. De los trece cortes que componen el último trabajo de las brujas del heavy metal, utilizaron "We Stand As One" para presentarlo el mismo día del disco, un tema cargado de melodía y sonido épico al más puro estilo heavy metal de toda la vida, un muy buen tema, dentro de un muy buen disco que seguro está haciendo pasar un buen rato a todo el que lo escucha. La banda hablaba así de su reciente trabajo: "¡Estamos felices y orgullosas de anunciar el nuevo disco y mostraros la excelente portada! Hemos crecido juntas como equipo y hemos llevado nuestro sonido al siguiente nivel, ¡Burning Witches en 2021 es más heavy y épico que nunca! ¡Conoce a LA BRUJA DEL NORTE y enamórate de nuestra evolución!&qu

Tablatura para Guitarra de... Piratas del Caribe. (B.S.O.).

 Tabs Fácil de... Piratas del Caribe. Cover.


  Hoy desde TabsFacil.es te propongo un cover, la tablatura para guitarra de una banda sonora que forma parte ya de la historia del cine y seguramente de las más versioneadas por todo tipo de músicos y sobre todo por guitarristas de todos los estilos. Se trata de  la banda sonora de Piratas del Caribe, creada por Hans Zimmer

Piratas del Caribe: Aventuras y Épica.

 Piratas del Caribe es una saga de películas de aventuras y piratas, cuyo hilo conductor son las desventuras del capitán Jack Sparrow

Esta serie de películas combina a la perfección en cada uno de sus guiones un contexto histórico y ficticio en el que conviven seres y piratas que han existido anteriormente como el pirata Davy Jones y su tripulación fantasmal a bordo de El Holandés Errante, o monstruos mitológicos como el Kraken, con la vida de los personajes que encarnan la saga. En un mundo gobernado por el Imperio británico, la Compañía de las Indias Orientales o el Imperio Español.

Piratas del Caribe: Inicio de una Saga.

 La serie comenzó en 2003 con Piratas del Caribe: La Maldición de la Perla Negra. Tres años después llegaría El cofre del hombre muerto. En el fin del mundo, siguió en 2007. La cuarta fue En mareas misteriosas en 2011 y la quinta, estrenada en 2017, Piratas del Caribe: La venganza de Salazar en la que: 

"Los marineros fantasmas, liderados por el aterrador Capitán Armando Salazar (Javier Bardem), se escapan del Triángulo del Diablo empeñados en matar a Jack cuya única esperanza que tiene de sobrevivir pasa por el legendario Tridente de Poseidón. En cuya búsqueda, se unirá con Carina Smyth (Kaya Scodelario), una brillante y hermosa astrónoma, y con Henry Turner (Brenton Thwaites), un joven y decidido marinero de la Marina Real, al timón del Dying Gull."

 Coge tu guitarra y revive las aventuras del capitán Jack Sparrow tocando la tablatura para Guitarra que te dejo desde Guitar Zøna , este cover de una de las bandas sonoras más épicas y posiblemente con más adaptaciones para guitarra del cine.

  Un saludo.


Tabs Fácil de... Piratas del Caribe. Cover.


1.------------------------|
2.------------------------|
3.------------------------|
4.-0-0--0-0--0-0-0-0-0--0-0
5.------------------------|
6.------------------------|

1.----------------|
2.----------------|
3.----------------|
4.-0-0--0-0-0-0-0-|
5.----------------|
6.----------------|


1.-------------------------|
2.-------------------------|
3.-------------------------|
4.---------------------5---|
5.-----5-5--5-7-8-8--8---7-|
6.-5-8---------------------|

1.------------|
2.------------|
3.------------|
4.------------|
5.-7--5-----5-|
6.------8-8---|


1.-------------------------|
2.-------------------------|
3.-------------------------|
4.---------------------5---|
5.-----5-5--5-7-8-8--8---7-|
6.-5-8---------------------|

1.----------|
2.----------|
3.----------|
4.----------|
5.-7--5---5-|
6.------8---|


1.------------------------|
2.------------------------|
3.------------------------|
4.---------------------5-7|
5.-----5-5--7-8-10-10-----|
6.-5-8--------------------|

1.--------------|
2.--------------|
3.--------------|
4.-8-8--7-5-7---|
5.------------5-|
6.--------------|

1.------------------------|
2.------------------------|
3.------------------------|
4.---------5-7------------|
5.-5-7-8-8-----5--7-8-7-7-|
6.------------------------|

1.--------|
2.--------|
3.--------|
4.--------|
5.-7-8-7--|
6.--------|

1.------------------------|
2.------------------------|
3.------7-7--7-9-10-10--10|
4.-7-10-------------------|
5.------------------------|
6.------------------------|

1.-------------|
2.-8-----------|
3.---9-9--7----|
4.----------10-|
5.-------------|
6.-------------|

1.------------------------|
2.------------------------|
3.----7-------7-7--7-9-10-|
4.-10----7-10-------------|
5.------------------------|
6.------------------------|

1.---------------|
2.--------8------|
3.-10--10---9-9--|
4.---------------|
5.---------------|
6.---------------|

1.------------------------|
2.------------------------|
3.-7----7-------7-7--9-10-|
4.---10----7-10-----------|
5.------------------------|
6.------------------------|

1.------------|
2.-------8-10-|
3.-12-12------|
4.------------|
5.------------|
6.------------|

1.------------------------|
2.-11-11--10-8-10---------|
3.----------------7--10-10|
4.------------------------|
5.------------------------|
6.------------------------|

1.-----------|
2.----10-----|
3.-12--------|
4.-------12--|
5.-----------|
6.-----------|

1.------------------------|
2.------------------------|
3.-10-12-9-9--------------|
4.-----------12-10-12--12-|
5.------------------------|
6.------------------------|

1.--------------|
2.----------10--|
3.-10-10-12-----|
4.--------------|
5.--------------|
6.--------------|

1.------------------------|
2.--------11--------------|
3.-10-9-7----12-10-9------|
4.------------------------|
5.-------------------7-8-7|
6.-------------------5-6-5|


1.-5-5-5--6-5-------------|
2.------------8-8-8--8-10-|
3.------------------------|
4.------------------------|
5.------------------------|
6.------------------------|

1.-5-5-5--6-5--|
2.-------------|
3.-------------|
4.-------------|
5.-------------|
6.-------------|

1.------------------------|
2.-8-6-------------8-10-8-|
3.-----9-7--7h9h10--------|
4.------------------------|
5.------------------------|
6.------------------------|

1.--------------|
2.--------------|
3.-10--9-10-12--|
4.--------------|
5.--------------|
6.--------------|

1.------------------------|
2.-10-8--6h8h10--8-6-5-6--|
3.------------------------|
4.------------------------|
5.------------------------|
6.------------------------|

1.-----------|
2.-5---------|
3.---7--5-7--|
4.-----------|
5.-----------|
6.-----------|

1.------------------------|
2.------------------------|
3.-7-9-10--9-10-12--10-12-|
4.------------------------|
5.------------------------|
6.------------------------|

1.--------------|
2.-10-----------|
3.----12-10-----|
4.----------12--|
5.--------------|
6.--------------|

1.------------------------|
2.--------8-10-11---------|
3.-7-9-10---------10--9-7-|
4.------------------------|
5.------------------------|
6.------------------------|

1.-5--6--5-5-5-|
2.-------------|
3.-------------|
4.-------------|
5.-------------|
6.-------------|

1.-5-3--------------------|
2.-----8--6--5-6-5--5-3---|
3.------------------------|
4.------------------------|
5.------------------------|
6.------------------------|

1.-------5---------|
2.-3h5h6----3h5h6--|
3.-----------------|
4.-----------------|
5.-----------------|
6.-----------------|

1.-6-------5-5-5--5-3-----|
2.---3h5h6-------------8--|
3.------------------------|
4.------------------------|
5.------------------------|
6.------------------------|

1.--------------|
2.-6--5-6-5-----|
3.-----------7--|
4.--------------|
5.--------------|
6.-----------|...

Comentarios

Lo Más Visto en Tabs Fácil.es:

Whole Lotta Love: Elegido Mejor Riff de la Historia del Rock.

Guitarrista Autodidacta: 3 Webs Básicas.

La Importancia de las Tablaturas.

Tabs Fácil de... Cada Vez Cadáver. Fito & Fitipaldis.

Cómic de Motörhead.

Acordes de... "Segundo Movimiento: Mierda de Filosofía." Robe.

Tabs fácil de... Electric Sunset. Twanguero.

Acordes para Guitarra de... Resistiré. Barón Rojo.

Tabs Fácil de... Argument About Pie. Paul Gilbert.

Tabs Fácil de... Far Beyond. Frozen Crown.