Última Entrada en Tabs Fácil.es:

Tabs Fácil de... We Stand As One. Burning Witches.

Imagen
Burning Witches nos presentaba el pasado 28 de mayo de 2021 su tercer larga duración, "The Witch Of The North" un disco que no deja indiferente a ningún seguidor del clásico sonido heavy metal. "The Witch Of The North" We Stand As One. Burning Witches. De los trece cortes que componen el último trabajo de las brujas del heavy metal, utilizaron "We Stand As One" para presentarlo el mismo día del disco, un tema cargado de melodía y sonido épico al más puro estilo heavy metal de toda la vida, un muy buen tema, dentro de un muy buen disco que seguro está haciendo pasar un buen rato a todo el que lo escucha. La banda hablaba así de su reciente trabajo: "¡Estamos felices y orgullosas de anunciar el nuevo disco y mostraros la excelente portada! Hemos crecido juntas como equipo y hemos llevado nuestro sonido al siguiente nivel, ¡Burning Witches en 2021 es más heavy y épico que nunca! ¡Conoce a LA BRUJA DEL NORTE y enamórate de nuestra evolución!&qu

Tabs fácil de...Symphony No.5 Movement 1 (L.V. Beethoven). Robert Rodrigo.

Tabs fácil de...Symphony No.5 Movement 1 (L.V. Beethoven). Robert Rodrigo.
   
Uno de los guitarristas que conocemos desde hace ya muchos años pero que no hemos tenido la oportunidad de compartir con vosotros en nuestra página, se trata nada más y nada menos de el guitarrista vizcaíno Robert Rodrigo que en su día participara en el recopilatorio de la compañía Lion Music: “Johan Sebastian Bach – Interpretations”

 Se trataba de un disco de 11 cortes homenaje al genio de la música clásica, reinterpretado por artistas de la talla de Patrik Carlsson, Charly Sahona, Mika Grönholm y el propio Robert R. Rodrigo.

  Así que aprovecho y os dejo unos momentos en tablatura del Primer Movimiento de la Quinta Sinfonía de Beethoven interpretada por Robert Rodrigo.




  Un saludo.


Tablatura fácil de...Symphony No.5 Movement 1 (L.V. Beethoven). Robert Rodrigo.



1.------------------------|
2.------------------8-8-8-|
3.------------------------8
4.-5-5-5---3-3-3----------|
5.-------6-------5--------|
6.------------------------|



1.---------11-11-11-8-----|
2.-9-9-9-8----------------|
3.--------------------10-10
4.------------------------|
5.------------------------|
6.------------------------|

1.-----------------13-13-13
2.--------9-9-9-8---------|
3.-10---------------------|
4.----12------------------|
5.------------------------|
6.------------------------|

1.-10--/15-15-13----/15-15|
2.---------------16-------|
3.------------------------|
4.------------------------|
5.------------------------|
6.------------------------|

1.-13-----/15-15-13-------|
2.----16------------16-13-|
3.------------------------|
4.------------------------|
5.------------------------|
6.------------------------|

1.-15-----------16-16-16-13
2.------------------------|
3.------------------------|
4.-----6-6-6-3------------|
5.------------------------|
6.------------------------|

1.------------------------|
2.-15-15-15-12------------|
3.-------------13-13-13-12|
4.------------------------|
5.------------------------|
6.------------------------|

1.-16-16-16-13------------|
2.-------------15-15-15-12|
3.------------------------|
4.------------------------|
5.------------------------|
6.------------------------|


1.--------------|
2.--------------|
3.--13-13-13-12-|
4.--------------|
5.--------------|
6.-----------|...

Comentarios

Lo Más Visto en Tabs Fácil.es:

Whole Lotta Love: Elegido Mejor Riff de la Historia del Rock.

Guitarrista Autodidacta: 3 Webs Básicas.

La Importancia de las Tablaturas.

Tabs Fácil de... Cada Vez Cadáver. Fito & Fitipaldis.

Cómic de Motörhead.

Acordes de... "Segundo Movimiento: Mierda de Filosofía." Robe.

Tabs fácil de... Electric Sunset. Twanguero.

Acordes para Guitarra de... Resistiré. Barón Rojo.

Tabs Fácil de... Argument About Pie. Paul Gilbert.

Tabs Fácil de... Far Beyond. Frozen Crown.