Bienvenid@ a Tabs Fácil.es un Blog de guitarra creado para l@s que os gusta tocar la guitarra y con el único objetivo de pasar un buen rato y divertirse sin dejar de practicar.

Coge tu Guitarra, ponte cómod@ y pasa un buen rato en Tabs Fácil.es, un blog para todos los que estáis aprendiendo o queréis aprender a tocar la guitarra, donde vas a encontrar cantidad de artículos relacionados con el mundo de la guitarra, cómo Lecciones, Consejos, Conceptos Básicos, Curiosidades, Recomendaciones...

Especialmente diseñada para ti, si eres guitarrista autodidacta y, con dos únicas premisas, que te diviertas y practiques con tu guitarra. 

 Todo lo necesario para divertirte y practicar lo tienes en Tabs Fácil.es, el complemento perfecto para tu aprendizaje y desde ahora tu Blog de Guitarra.

Adelante.

Aprende a Tocar la Guitarra:

Guía Fácil Futuro Guitarrista.

Imagen
    Quieres aprender a tocar la guitarra?   Olvídate de excusas y deja atrás tus dudas, la  Guía Fácil para el Futuro Guitarrista  es la herramienta perfecta para conseguirlo. La  Guía Fácil para el Futuro Guitarrista  es un método de guit arra, una guía fácil compuesta de las Lecciones y Ejercicios Básicos necesarios para adentrarte en el mundo de la guitarra y comenzar a tocarla de la manera más rápida y sencilla. Seguro que más de una vez te has planteado  aprender a tocar la guitarra . Para Año Nuevo, en vacaciones o de regreso de ellas… Pero siempre por una u otra razón nunca te has puesto a ello. Muy posiblemente algunas de las excusas que has puesto para no hacerlo han sido del tipo:     “Mis manos son muy pequeñas o muy grandes, me falta destreza en las manos, no quiero estudiar Teoría, ya no tengo edad, no dispongo del tiempo suficiente..."   La Guía Fácil para el Futuro Guitarrista.      "Con esta  Guía Fácil para el Futuro Guitarrista  no pretendo reescribir o rei

Tabs Fácil de... La Novia Cadáver. Cover.

 Tabs Fácil de... Victor's Piano solo. La Novia Cadáver.

  Para todos los aficionados de las películas de Tim Burton, la música de Danny Elfman y los covers de guitarra os quiero dejar la tablatura para guitarra del "Víctor's Piano Solo" perteneciente a la B.S.O. de "La Novia Cadáver."

La Novia Cadáver.

 "La novia cadáver"  es una película de Tim Burton y Mike Johnson estrenada en 2005  y basada en un cuento popular ruso-judío del siglo XIX. La película está ambientada en un pueblo imaginario de la época victoriana. 


Banda Sonora de La Novia Cadáver.

La banda sonora fue escrita por Danny Elfman, un colaborador habitual del director Tim Burton, con la ayuda de John August.

Argumento de la Película.

La película cuenta la historia de Víctor Van Dort. El muchacho está a punto de casarse con la bella y distinguida joven Victoria, aunque es una boda orquestada por los padres, ambos quedan prendados el uno del otro casi al instante... Durante el ensayo de la boda, mientras estaba practicando sus votos, el muchacho sufre una crisis de nervios...

... Cuando reúne el valor necesario, practica y recita sus votos  colocando su anillo en una raíz del suelo que en realidad es una mano, la cual, lo agarra firmemente del brazo, emergiendo del suelo, el cadáver de una hermosa mujer envuelta en un vestido de novia. Esta Novia Cadáver declara que el muchacho es su marido y este, tras recibir el tradicional beso, se desmaya...

"Víctor's Piano Solo" 

  Como os decía al principio, para todos los aficionados a las películas de Tim Burton, la música de Danny Elfman, los covers de guitarra y las tablaturas para guitarra: "Víctor's Piano Solo" perteneciente a la B.S.O. de "La Novia Cadáver."

  Un saludo.



Tablatura para Guitarra de La Novia Cadáver. Víctor's Piano Solo.


1.-2-3---------------------|
2.-----4-5---------------5-|
3.---------4-5--6------6---6
4.-------------------6-----|
5.-----------------4-------|
6.-------------------------|

1.-------------------------|
2.---------5------/9--9-9--|
3.-------6---6-------------|
4.-6---6-------6-----------|
5.---4---------------------|
6.-------------------------|

1.--------------7--7-7-----|
2.-9-9--10-9--9--------10-9|
3.-------------------------|
4.-------------------------|
5.-------------------------|
6.-------------------------|

1.---4--5-4----------------|
2.-7---------5--5--5-4----7|
3.----------------------6--|
4.-------------------------|
5.-------------------------|
6.-------------------------|

1.-/14--14-14--14-12-11--12|
2.-------------------------|
3.-------------------------|
4.-------------------------|
5.-------------------------|
6.-------------------------|

1.-/16---------------------|
2.------/5-5-4-------------|
3.---------------6-6-5--6-6|
4.-------------------------|
5.-------------------------|
6.-------------------------|

1.-----------------------/16
2.-----------5-5--7--9-9---|
3.-8-8--9-9----------------|
4.-------------------------|
5.-------------------------|
6.-------------------------|

1.-14-----------------16-16|
2.----17-17-15-13----------|
3.----------------15-------|
4.-------------------------|
5.-------------------------|
6.-------------------------|

1.-16-16-16-16--16-16-16-16|
2.-------------------------|
3.-------------------------|
4.-------------------------|
5.-------------------------|
6.-------------------------|

1.-16-17-16----------------|
2.----------17-14--12--12-12
3.-------------------------|
4.-------------------------|
5.-------------------------|
6.-------------------------|

1.----------------7-7-8-10-|
2.-12--10-12--12-----------|
3.-------------------------|
4.-------------------------|
5.-------------------------|
6.-------------------------|

1.-12-12-------------------|
2.--------13-15-17-17------|
3.---------------------5-7-|
4.-------------------------|
5.-------------------------|
6.-------------------------|

1.------|
2.------|
3.-9-9--|
4.------|
5.------|
6.---|...

Comentarios