Última Entrada en Tabs Fácil.es:

Tabs Fácil de... We Stand As One. Burning Witches.

Imagen
Burning Witches nos presentaba el pasado 28 de mayo de 2021 su tercer larga duración, "The Witch Of The North" un disco que no deja indiferente a ningún seguidor del clásico sonido heavy metal. "The Witch Of The North" We Stand As One. Burning Witches. De los trece cortes que componen el último trabajo de las brujas del heavy metal, utilizaron "We Stand As One" para presentarlo el mismo día del disco, un tema cargado de melodía y sonido épico al más puro estilo heavy metal de toda la vida, un muy buen tema, dentro de un muy buen disco que seguro está haciendo pasar un buen rato a todo el que lo escucha. La banda hablaba así de su reciente trabajo: "¡Estamos felices y orgullosas de anunciar el nuevo disco y mostraros la excelente portada! Hemos crecido juntas como equipo y hemos llevado nuestro sonido al siguiente nivel, ¡Burning Witches en 2021 es más heavy y épico que nunca! ¡Conoce a LA BRUJA DEL NORTE y enamórate de nuestra evolución!&qu

Tabs Fácil de... How Would You Feel. Ed Sheeran.

Tabs Fácil de... How would You Feel. Ed Sheeran.
 
"Divide" era el tercer álbum del cantante y guitarrista británico Ed Sheeran. Lanzado el 3 de marzo de 2017, el disco fue premiado en los Grammy 2018.

El álbum debutó en el número uno en el Reino Unido, y se convirtió en el álbum más vendido por un artista masculino en ese país y el tercer mayor debut detrás del disco "25" de Adele y "Be Here Now" de Oasis

  "How Would You Feel" es uno de los temas que compone este disco y del que os quiero dejar un fragmento en tablatura, unos licks de guitarra que componen el solo, fáciles de tocar y muy bonitos d escuchar.

  Un saludo.


Tabs Fácil de... How would You Feel. Ed Sheeran.


(2:57)

1.------------------------|
2.------10----10-12(14)-12|
3.-9-11----11-------------|
4.------------------------|
5.------------------------|
6.------------------------|

1.----------------------|
2.-12(14)(12)-10----10--|
3.---------------11-----|
4.----------------------|
5.----------------------|
6.----------------------|

1.------------------------|
2.------10----10-12(14)-12|
3.-9-11----11-------------|
4.------------------------|
5.------------------------|
6.------------------------|

1.-12---------------------|
2.-----12(14)(12)-10----10|
3.-------------------11---|
4.------------------------|
5.------------------------|
6.------------------------|

1.------------------------|
2.------10----10-12(14)-12|
3.-9-11----11-------------|
4.------------------------|
5.------------------------|
6.------------------------|

1.-12h14h17--12h14--12-12-|
2.------------------------|
3.------------------------|
4.------------------------|
5.------------------------|
6.------------------------|


1.-h14--|
2.------|
3.------|
4.------|
5.------|
6.------|

1.------------------------|
2.------10----10-12(14)-12|
3.-9-11----11-------------|
4.------------------------|
5.------------------------|
6.------------------------|

1.------------------------|
2.-12(14)(12)--10h12p10-10|
4.------------------------|
5.------------------------|
6.------------------------|


1.------------------|
2.------------------|
3.-11p9-------------|
4.------9p7--9/11---|
5.------------------|
6.---------------|...

Comentarios

Lo Más Visto en Tabs Fácil.es:

Whole Lotta Love: Elegido Mejor Riff de la Historia del Rock.

Guitarrista Autodidacta: 3 Webs Básicas.

La Importancia de las Tablaturas.

Tabs Fácil de... Cada Vez Cadáver. Fito & Fitipaldis.

Cómic de Motörhead.

Acordes de... "Segundo Movimiento: Mierda de Filosofía." Robe.

Tabs fácil de... Electric Sunset. Twanguero.

Acordes para Guitarra de... Resistiré. Barón Rojo.

Tabs Fácil de... Argument About Pie. Paul Gilbert.

Tabs Fácil de... Far Beyond. Frozen Crown.