Última Entrada en Tabs Fácil.es:

Tabs Fácil de... We Stand As One. Burning Witches.

Imagen
Burning Witches nos presentaba el pasado 28 de mayo de 2021 su tercer larga duración, "The Witch Of The North" un disco que no deja indiferente a ningún seguidor del clásico sonido heavy metal. "The Witch Of The North" We Stand As One. Burning Witches. De los trece cortes que componen el último trabajo de las brujas del heavy metal, utilizaron "We Stand As One" para presentarlo el mismo día del disco, un tema cargado de melodía y sonido épico al más puro estilo heavy metal de toda la vida, un muy buen tema, dentro de un muy buen disco que seguro está haciendo pasar un buen rato a todo el que lo escucha. La banda hablaba así de su reciente trabajo: "¡Estamos felices y orgullosas de anunciar el nuevo disco y mostraros la excelente portada! Hemos crecido juntas como equipo y hemos llevado nuestro sonido al siguiente nivel, ¡Burning Witches en 2021 es más heavy y épico que nunca! ¡Conoce a LA BRUJA DEL NORTE y enamórate de nuestra evolución!&qu

Tabs fácil de... Game of Thrones. Emily Rose Hastings.

Tabs fácil de... Game of Thrones. Emily Rose Hastings.

  Uno de los temas con más versiones, adaptaciones, covers y tabs es sin duda la banda sonora de la serie "Game of Thrones" o "Juego de Tronos" en castellano. También es sin duda, uno de los temas más épicos y quizás sea además por eso, por lo que todos los músicos del mundo quieren versionearla o adaptarla a su instrumento.




   En TabsFácil.es quería tener éste tema en el índice y me he decantado por el último que he escuchado, que no por eso pierde su magia, toda una declaración de intenciones de una de las guitarristas más prolíficas en las redes socialesEmily Rose Hastings que nos deja una versión en la que usa la guitarra para simular una orquesta...

  Un saludo.

 

Tabs Fácil de... Game of Thrones. Emily Rose Hastings.



1.------------------------|
2.------------------------|
3.------------------------|
4.------------------------|
5.------------------------|
6.-x-x--x-x-x--x-x--x-x-x-|

1.------------------------|
2.-8-----6-8------6-8-----|
3.---5-8------5-8------5-8|
4.------------------------|
5.------------------------|
6.------------------------|

1.------------------------|
2.-6-8----5-6-8----5-6-8--|
3.------5-------5--------5|
4.------------------------|
5.------------------------|
6.------------------------|

1.------------------------|
2.-5-6-8------------------|
3.-------5----------------|
4.------------------------|
5.------------------------|
6.------------------------|


1.------------------------|
2.------------------------|
3.------------------------|
4.-5----3-5-----3----3----|
5.--3-6-----3-6---5------6|
6.---------------------6--|

1.-------------|
2.-------------|
3.-------------|
4.---3---------|
5.-5-----6-5-3-|
6.-----6-------|

1.------------------------|
2.------------------------|
3.------------------------|
4.-5----3-5-----3----3----|
5.--3-6-----3-6---5------6|
6.---------------------6--|

1.-------------|
2.-------------|
3.-------------|
4.---3---------|
5.-5-----6-5-3-|
6.-----6-------|


1.-15-------13-15-------13|
2.----13-16-------13-16---|
3.------------------------|
4.------------------------|
5.------------------------|
6.------------------------|

1.-----13----10-11-10-----|
2.-15-----11----------11-13
3.------------------------|
4.------------------------|
5.------------------------|
6.------------------------|

1.------------------------|
2.-11(13)-11--8(9)-8--4---|
3.-----------------------8|
4.------------------------|
5.------------------------|
6.------------------------|

1.------------------------|
2.--------11(13)-11--8(9)-8
3.--7--5------------------|
4.------------------------|
5.------------------------|
6.------------------------|

1.------------------|
2.--4-----6p4p3-----|
3.-----8---------5--|
4.------------------|
5.------------------|
6.------------------|


Comentarios

Lo Más Visto en Tabs Fácil.es:

Whole Lotta Love: Elegido Mejor Riff de la Historia del Rock.

Guitarrista Autodidacta: 3 Webs Básicas.

La Importancia de las Tablaturas.

Tabs Fácil de... Cada Vez Cadáver. Fito & Fitipaldis.

Cómic de Motörhead.

Acordes de... "Segundo Movimiento: Mierda de Filosofía." Robe.

Tabs fácil de... Electric Sunset. Twanguero.

Acordes para Guitarra de... Resistiré. Barón Rojo.

Tabs Fácil de... Argument About Pie. Paul Gilbert.

Tabs Fácil de... Far Beyond. Frozen Crown.