Tabs Fàcil de... The Final Countdown. Europe.

 
Tabs Fàcil de... The Final Countdown. Europe.

 Europe es una banda sueca de hard rock fundada cerca de Estocolmo en 1979 por el vocalista Joey Tempest y el guitarrista John Norum. Durante los 80 y principios de los 90 estuvieron muy influenciados por el glam metal de la época, aunque su sonido estaba más cercano al metal melódico. 


The Final Countdown.

 Europe logró la fama internacional en la década de los 80 con su tercer álbum "The Final Countdown" (1986), con el que vendió más de 15.5 millones de copias sólo en Estados Unidos. La banda fue uno de los más exitosos espectáculos de rock en la década y vendió más de veinte millones de álbumes en ese país y más de 60 millones de álbumes alrededor del mundo.


Final de una época. Sonido nuevo.

 A raíz de la significativa pérdida de popularidad que afectó al género a inicios de los 90, Europe se tomó un largo receso en 1992 pero, en 2003 anunciaban su esperado regreso a la escena mundial. desde entonces, y bajo un nuevo estilo, han publicado seis discos más.

 Hoy es un buen momento para recordar el solo de guitarra de la canción más conocida de la banda, todo un himno en el mundo entero que ahora tú puedes tocar con la guitarra gracias a este momento en tablatura que continuación te dejo.

  Un saludo.

 Tabs Fàcil de... The Final Countdown. Europe.


(Solo)

1.----10-14-10----14-10----|
2.-12----------12-------12-|
3.-------------------------|
4.-------------------------|
5.-------------------------|
6.-------------------------|

1.-14-10----14-10----14-10-|
2.-------12-------12-------|
3.-------------------------|
4.-------------------------|
5.-------------------------|
6.-------------------------|

1.----12-15-12----15-12----|
2.-14----------14-------14-|
3.-------------------------|
4.-------------------------|
5.-------------------------|
6.-------------------------|

1.-15-12----15-12----15-12-|
2.-------14-------14-------|
3.-------------------------|
4.-------------------------|
5.-------------------------|
6.-------------------------|

1.----14-17-14----17-14----|
2.-15----------15-------15-|
3.-------------------------|
4.-------------------------|
5.-------------------------|
6.-------------------------|

1.-17-14----17-14----17----|
2.-------15-------15-------|
3.-----------------------12
4.-------------------------|
5.-------------------------|
6.-------------------------|

1.-------------------------|
2.-12-15-12-----------12---|
3.----------12--12-14----14
4.-------------------------|
5.-------------------------|
6.-------------------------|

1.-------------------------|
2.-------------------------|
3.-12-11--12-11------------|
4.--------------14-12-14---|
5.-------------------------|
6.-------------------------|

1.-------------------------|
2.-8-8-8--7h8p7-5----------|
3.----------------7-6(7)--4
4.-------------------------|
5.-------------------------|
6.-------------------------|

1.-----------7------------7
2.----10(12)---10-7--------|
3.-2----------------9(11)--|
4.-------------------------|
5.-------------------------|
6.-------------------------|

1.-------------------------|
2.-10-7---7h10p7-9h7--9h10-|
3.------9------------------|
4.-------------------------|
5.-------------------------|
6.-------------------------|

1.-------------------|
2.-10p9p7---9---7h9--|
3.--------9---9------|
4.-------------------|
5.-------------------|
6.-------------------|


1.----10-14-10----14-10----|
2.-12----------12-------12-|
3.-------------------------|
4.-------------------------|
5.-------------------------|
6.-------------------------|

1.-14-10----14-10----14-10-|
2.-------12-------12-------|
3.-------------------------|
4.-------------------------|
5.-------------------------|
6.-------------------------|

1.----12-15-12----15-12----|
2.-14----------14-------14-|
3.-------------------------|
4.-------------------------|
5.-------------------------|
6.-------------------------|

1.-15-12----15-12----15-12-|
2.-------14-------14-------|
3.-------------------------|
4.-------------------------|
5.-------------------------|
6.-------------------------|

1.----14-17-14----17-14----|
2.-15----------15-------15-|
3.-------------------------|
4.-------------------------|
5.-------------------------|
6.-------------------------|

1.-17-14----17-14----17----|
2.-------15-------15-------|
3.-----------------------12
4.-------------------------|
5.-------------------------|
6.-------------------------|

1.-------------------------|
2.-12-15-12-----------12---|
3.----------12--12-14----14
4.-------------------------|
5.-------------------------|
6.-------------------------|

1.-------------------------|
2.-------------------------|
3.-12-11--12-11------------|
4.--------------14-12-14---|
5.-------------------------|
6.-------------------------|

1.-------------------------|
2.-8-8-8--7h8p7-5----10(12)
3.----------------7--------|
4.-------------------------|
5.-------------------------|
6.-------------------------|

1.------------------7------|
2.-10----5--7--7(9)---7(9)-7
3.-----7-------------------|
4.-------------------------|
5.-------------------------|
6.-------------------------|

Comentarios

Entradas populares de este blog

Un Nuevo Comienzo. Tablatura para Guitarra. Runa Llena.