Última Entrada en Tabs Fácil.es:

Tabs Fácil de... We Stand As One. Burning Witches.

Imagen
Burning Witches nos presentaba el pasado 28 de mayo de 2021 su tercer larga duración, "The Witch Of The North" un disco que no deja indiferente a ningún seguidor del clásico sonido heavy metal. "The Witch Of The North" We Stand As One. Burning Witches. De los trece cortes que componen el último trabajo de las brujas del heavy metal, utilizaron "We Stand As One" para presentarlo el mismo día del disco, un tema cargado de melodía y sonido épico al más puro estilo heavy metal de toda la vida, un muy buen tema, dentro de un muy buen disco que seguro está haciendo pasar un buen rato a todo el que lo escucha. La banda hablaba así de su reciente trabajo: "¡Estamos felices y orgullosas de anunciar el nuevo disco y mostraros la excelente portada! Hemos crecido juntas como equipo y hemos llevado nuestro sonido al siguiente nivel, ¡Burning Witches en 2021 es más heavy y épico que nunca! ¡Conoce a LA BRUJA DEL NORTE y enamórate de nuestra evolución!&qu

Tabs Fácil de... Entre dos mares. Fito y Fitipaldis.

Tabs Fácil de... Entre dos mares. Fito y Fitipaldis.
 
 "20 años en la carretera no son moco de pavo. Pero es que además la cosa tiene trampa. Porque Fito Cabrales lleva mucho más que eso atizando a su guitarra y poniendo palabras a esas historias que tanto nos gusta cantar. Aunque “solo” lleva esos 20 años vistiendo de Fitipaldi. Un motivo, por otro lado inmejorable, para publicar el primer recopilatorio de su carrera. Con “Basurillas”, su guitarra favorita..."  Seguir Leyendo.

  (Texto extraído de la página oficial de Fito & Fitipaldis, escrito por Eduardo Izquierdo.)

 Con el tema "Entre dos mares" de su época de Platero y... Fito presentaba su, hasta la fecha, último trabajo "Fitografía" con el que se embarcaba en una gira que recorrería las ciudades más importantes de la península. 

 Es de ese tema, "Entre dos mares" del que os quiero dejar un momento en tablatura para que paséis un buen rato tocando con Fito y Fitipaldis.

  Un saludo.


Entre dos mares. Fito & Fitipaldis.



1.-2-2-2-----------------|
2.-3-3-3-----------------|
3.-2-2-2-----2-----------|
4.-0-0-0--/4---4-2-0-----|
5.-------------------2p0-|
6.-----------------------|

1.-0-0-0------------------|
2.-2-2-2------------------|
3.-2-2-2------------------|
4.-2-2-2--------2---------|
5.-0-0-0--0-2/4---4-2-0---|
6.----------------------2p0

1.-2-2-2------5-----------|
2.-3-3-3--5/7---7-5-------|
3.-2-2-2------------6-4-2-|
4.-0-0-0------------------|
5.------------------------|
6.------------------------|

1.-0-0-0------------------|
2.-2-2-2-----5------------|
3.-2-2-2--/6---6-4-2------|
4.-2-2-2-------------4-2p0|
5.-0-0-0------------------|
6.------------------------|

1.-2-2-2------5-----------|
2.-3-3-3--5/7---7-5-------|
3.-2-2-2------------6-4-2-|
4.-0-0-0------------------|
5.------------------------|
6.------------------------|

1.------------------------|
2.--------5---------------|
3.-----/6---6-4-2-------2-2
4.-2-2------------4-2p0-0-0
5.-0-0--------------------|
6.------------------------|


(2:38)

1.------------------------|
2.-7h8p7-----------7h8p7--|
3.-------9p7h9-/11-------9p
4.------------------------|
5.------------------------|
6.------------------------|

1.------------------------|
2.------------7h8--8p7p5--|
3.-7h9-/11-11------------7|
4.------------------------|
5.------------------------|
6.------------------------|

1.------------------------|
2.-5h7-----------------7-8|
3.------7h9---7p6---------|
4.----------------9/7-----|
5.------------------------|
6.------------------------|

1.------------------------|
2.-7/5-3-5-7--7-8-7-5-3h5/7
3.------------------------|
4.------------------------|
5.------------------------|
6.------------------------|

1.------------------------|
2.-7--7-8--7h8p7/5--3h5-5p3
3.-----------------7------|
4.------------------------|
5.------------------------|
6.------------------------|

1.------------|
2.------------|
3.-7--6-------|
4.--------7/9-|
5.------------|
6.---------|...

Comentarios

Lo Más Visto en Tabs Fácil.es:

Whole Lotta Love: Elegido Mejor Riff de la Historia del Rock.

Guitarrista Autodidacta: 3 Webs Básicas.

La Importancia de las Tablaturas.

Tabs Fácil de... Cada Vez Cadáver. Fito & Fitipaldis.

Cómic de Motörhead.

Acordes de... "Segundo Movimiento: Mierda de Filosofía." Robe.

Tabs fácil de... Electric Sunset. Twanguero.

Acordes para Guitarra de... Resistiré. Barón Rojo.

Tabs Fácil de... Argument About Pie. Paul Gilbert.

Tabs Fácil de... Far Beyond. Frozen Crown.