Última Entrada en Tabs Fácil.es:

Tabs Fácil de... We Stand As One. Burning Witches.

Imagen
Burning Witches nos presentaba el pasado 28 de mayo de 2021 su tercer larga duración, "The Witch Of The North" un disco que no deja indiferente a ningún seguidor del clásico sonido heavy metal. "The Witch Of The North" We Stand As One. Burning Witches. De los trece cortes que componen el último trabajo de las brujas del heavy metal, utilizaron "We Stand As One" para presentarlo el mismo día del disco, un tema cargado de melodía y sonido épico al más puro estilo heavy metal de toda la vida, un muy buen tema, dentro de un muy buen disco que seguro está haciendo pasar un buen rato a todo el que lo escucha. La banda hablaba así de su reciente trabajo: "¡Estamos felices y orgullosas de anunciar el nuevo disco y mostraros la excelente portada! Hemos crecido juntas como equipo y hemos llevado nuestro sonido al siguiente nivel, ¡Burning Witches en 2021 es más heavy y épico que nunca! ¡Conoce a LA BRUJA DEL NORTE y enamórate de nuestra evolución!&qu

Tabs Fácil de... Dimabeca. Víctor de Andrés.

 

Tabs Fácil de... Dimabeca. Víctor de Andrés.

  Sin duda el guitarrista más en forma del panorama nacional no es otro que Víctor de Andrés, Scarlett Animal, Ex-Zenobia y su propio Canal de Youtube, son algunos de los proyectos más relevantes y dónde podemos disfrutar de este virtuoso de la guitarra... Sin olvidarnos que desde hace bien poquito forma ya parte de Mägo de Oz sustituyendo él y Manuel Seoane a Frank y Carlitos.


Dimabeca. Víctor de Andrés.

  "Dimabeca" es un precioso tema en el que el guitarrista combina a la perfección la guitarra flamenca y la guitarra eléctrica, demostrando porque es uno de los mejores guitarristas del momento.

  

El guitarrista Youtuber.

  Uno de los mejores ejemplos de esfuerzo y trabajo bien hecho, es sin duda la carrera de Víctor de Andrés, que empezaba a darse a conocer con numerosas colaboraciones y proyectos, entre los que destaca su Canal de Youtube, donde podemos encontrar desde magníficos y originales Covers de temas y bandas sonoras conocidos, sus propias composiciones, opiniones y consejos.

Ahora puedes disfrutar de unos momentos en tablatura para guitarra del bonito tema.

Un Saludo.

Oír Tema.


Tabs fácil de... Dimabeca. Víctor de Andrés.


(0:17)


1.-3-------------3------|

2.-3-------------4--4-3-|

3.-3------2-3-5--5--5-5-|

4.-5----5--------5------|

5.-5--5----------3------|

6.-3--------------------|


1.--------3-------------|

2.-3h4p3--6-------------|

3.--------5--------5-7-7|

4.--------3--5-7-8------|

5.----------------------|

6.----------------------|


1.------------|

2.------------|

3.-7-5-7-5----|

4.---------8--|

5.------------|

6.---------|...


(0:41)


1.----------------------|

2.----------------------|

3.---------5-/8-7-5-----|

4.---5-7-8----------5-7-8

5.-5--------------------|

6.----------------------|


1.------------------|

2.------------------|

3.-5-7--5--5h7p5/-3-|

4.------------------|

5.------------------|

6.---------------|...


(1:52)

1.----------------------|

2.----------------------|

3.-/8-8--8-8-7--5-5--/7-7

4.----------------------|

5.----------------------|

6.----------------------|


1.----------------------|

2.----------------------|

3.-7-7--5--3h5p3--------3

4.----------------------|

5.----------------3h5h6-|

6.----------------------|


1.----------------------|

2.----------------------|

3.-3------7-5--/8--8-8-8|

4.----------------------|

5.---5-6----------------|

6.----------------------|


1.------------------|

2.----8--7h8p7/-5h7-|

3.-10---------------|

4.------------------|

5.------------------|

6.---------------|...


Comentarios

Lo Más Visto en Tabs Fácil.es:

Whole Lotta Love: Elegido Mejor Riff de la Historia del Rock.

Guitarrista Autodidacta: 3 Webs Básicas.

La Importancia de las Tablaturas.

Tabs Fácil de... Cada Vez Cadáver. Fito & Fitipaldis.

Cómic de Motörhead.

Acordes de... "Segundo Movimiento: Mierda de Filosofía." Robe.

Tabs fácil de... Electric Sunset. Twanguero.

Acordes para Guitarra de... Resistiré. Barón Rojo.

Tabs Fácil de... Argument About Pie. Paul Gilbert.

Tabs Fácil de... Far Beyond. Frozen Crown.