Última Entrada en Tabs Fácil.es:

Tabs Fácil de... We Stand As One. Burning Witches.

Imagen
Burning Witches nos presentaba el pasado 28 de mayo de 2021 su tercer larga duración, "The Witch Of The North" un disco que no deja indiferente a ningún seguidor del clásico sonido heavy metal. "The Witch Of The North" We Stand As One. Burning Witches. De los trece cortes que componen el último trabajo de las brujas del heavy metal, utilizaron "We Stand As One" para presentarlo el mismo día del disco, un tema cargado de melodía y sonido épico al más puro estilo heavy metal de toda la vida, un muy buen tema, dentro de un muy buen disco que seguro está haciendo pasar un buen rato a todo el que lo escucha. La banda hablaba así de su reciente trabajo: "¡Estamos felices y orgullosas de anunciar el nuevo disco y mostraros la excelente portada! Hemos crecido juntas como equipo y hemos llevado nuestro sonido al siguiente nivel, ¡Burning Witches en 2021 es más heavy y épico que nunca! ¡Conoce a LA BRUJA DEL NORTE y enamórate de nuestra evolución!&qu

Tabs Fácil de... Children of the Next Level. Testament.

 Tabs Fácil de... Children of the Next Level. Testament.

  Cuatro años después, Testament regresaba a la actualidad con "Titans of Creation" así se titulaba el decimotercer álbum de Testament una de las mejores bandas de Thrash metal de todos los tiempos y que siguen en la actualidad muy en forma, cosa que demuestran con cada trabajo que lanzan al mercado.

  Uno de sus singles, con vídeo animado incluido era para el tema "Children of the Next Level" del que os quiero dejar un pequeño momento en Tablatura para guitarra, por que no, la mejor manera de pasar el rato y practicar con la guitarra,  de la mano de Testament.


   Un saludo.



Tabs fácil de... Children of the Next Level. Testament.


1.--------------------------|
2.--------------------------|
3.-------4----------------4-|
4.-1-1-1-2--6-5-2-5-1-1-1-2-|
5.--------------------------|
6.--------------------------|

1.------------------------|
2.------------------------|
3.-1p0---0-----0-------4--|
4.-----2---2-1---1-1-1-2--|
5.------------------------|
6.------------------------|

1.------------|
2.---------4--|
3.-/4-3-4-----|
4.------------|
5.------------|
6.---------|...


(0:10)

1.--------------------------|
2.--------------------------|
3.-1p0---0-----0-------4----|
4.-----2---2-1---1-1-1-2-1--|
5.--------------------------|
6.--------------------------|


1.--------------------------|
2.--------------------------|
3.--------------------------|
4.-1-1-1--1-1-1--1-1-1--1-1-1
5.--------------------------|
6.--------------------------|

1.--------------------------|
2.--------------------------|
3.--------------4-3--8-7-4-7
4.-1-1-1--1-1-1-2-1--6-5-2-5
5.--------------------------|
6.--------------------------|

1.-------------------|
2.-------------------|
3.-4-3-4----------4-3
4.-2-1-2-1--1-1-1-2-1
5.-------------------|
6.----------------|...


(1:57)

1.--------------------------|
2.-----/3--/6--/9--/12--/15-|
3.-//-----------------------|
4.--------------------------|
5.--------------------------|
6.--------------------------|

1.--------------------------|
2.--------------------------|
3.-15-13-12-13--15-12-12--15
4.--------------------------|
5.--------------------------|
6.--------------------------|

1.--------------------------|
2.--------------------------|
3.-13-12--13-12-/10--8-12-8-|
4.--------------------------|
5.--------------------------|
6.--------------------------|

1.--------|
2.--------|
3.-----8--|
4.--11----|
5.--------|
6.-----|...

Comentarios

Lo Más Visto en Tabs Fácil.es:

Whole Lotta Love: Elegido Mejor Riff de la Historia del Rock.

Guitarrista Autodidacta: 3 Webs Básicas.

La Importancia de las Tablaturas.

Tabs Fácil de... Cada Vez Cadáver. Fito & Fitipaldis.

Cómic de Motörhead.

Acordes de... "Segundo Movimiento: Mierda de Filosofía." Robe.

Tabs fácil de... Electric Sunset. Twanguero.

Acordes para Guitarra de... Resistiré. Barón Rojo.

Tabs Fácil de... Argument About Pie. Paul Gilbert.

Tabs Fácil de... Far Beyond. Frozen Crown.