Última Entrada en Tabs Fácil.es:

Tabs Fácil de... We Stand As One. Burning Witches.

Imagen
Burning Witches nos presentaba el pasado 28 de mayo de 2021 su tercer larga duración, "The Witch Of The North" un disco que no deja indiferente a ningún seguidor del clásico sonido heavy metal. "The Witch Of The North" We Stand As One. Burning Witches. De los trece cortes que componen el último trabajo de las brujas del heavy metal, utilizaron "We Stand As One" para presentarlo el mismo día del disco, un tema cargado de melodía y sonido épico al más puro estilo heavy metal de toda la vida, un muy buen tema, dentro de un muy buen disco que seguro está haciendo pasar un buen rato a todo el que lo escucha. La banda hablaba así de su reciente trabajo: "¡Estamos felices y orgullosas de anunciar el nuevo disco y mostraros la excelente portada! Hemos crecido juntas como equipo y hemos llevado nuestro sonido al siguiente nivel, ¡Burning Witches en 2021 es más heavy y épico que nunca! ¡Conoce a LA BRUJA DEL NORTE y enamórate de nuestra evolución!&qu

Tablatura fácil de... Langosta Iraquí. Family Guy.

Tablatura fácil de... Langosta Iraquí. Family Guy.
  
 Una de las canciones que popularizaron y más fama ha tenido de la prestigiosa y conocida serie de dibujos animados norteamerica "Family Guy" es sin duda, "La langosta Iraquí." 

  Desde luego que  después han venido numerosas canciones igual de divertidas pero quizás haya sido ésta la que más nos despertó a todos en su momento y aún hoy lo hace, las ganas de aprender a tocarla.

  Hoy, cómo seguidor de la serie de dibujos animados que soy, os quiero dejar unos momentos en tablatura de dicha canción, para que paséis un buen rato tocando la guitarra.
  Un saludo.


Tabs fácil de... Langosta Iraquí. Family Guy.


1.----------------------3--3
2.----4-----4-----------3--3
3.----5-----5-----------4--4
4.----5-----5--6-3-6-5-----|
5.-3-----6-----------------|
6.-------------------------|

1.----------------------3--3
2.----4-----4-----------3--3
3.----5-----5-----------4--4
4.----5-----5--6-3-6-5-----|
5.-3-----6-----------------|
6.-------------------------|

1.----------------------3--3
2.----4-----4-----------3--3
3.----5-----5-----------4--4
4.----5-----5--6-3-6-5-----|
5.-3-----6-----------------|
6.-------------------------|

1.-------------------------|
2.-------------------------|
3.-12--11--12-12-12--11--8-8
4.-------------------------|
5.-10---9--10-10-10---9--6-6
6.-------------------------|

1.-----------------|
2.-----------------|
3.-8--11-11-11--12-|
4.-----------------|
5.-6--9--9--9---10-|
6.--------------|...

Comentarios

Lo Más Visto en Tabs Fácil.es:

Whole Lotta Love: Elegido Mejor Riff de la Historia del Rock.

Guitarrista Autodidacta: 3 Webs Básicas.

La Importancia de las Tablaturas.

Tabs Fácil de... Cada Vez Cadáver. Fito & Fitipaldis.

Cómic de Motörhead.

Acordes de... "Segundo Movimiento: Mierda de Filosofía." Robe.

Tabs fácil de... Electric Sunset. Twanguero.

Acordes para Guitarra de... Resistiré. Barón Rojo.

Tabs Fácil de... Argument About Pie. Paul Gilbert.

Tabs Fácil de... Far Beyond. Frozen Crown.