Bienvenid@ a Tabs Fácil.es un Blog de guitarra creado para l@s que os gusta tocar la guitarra y con el único objetivo de pasar un buen rato y divertirse sin dejar de practicar.

Coge tu Guitarra, ponte cómod@ y pasa un buen rato en Tabs Fácil.es, un blog para todos los que estáis aprendiendo o queréis aprender a tocar la guitarra, donde vas a encontrar cantidad de artículos relacionados con el mundo de la guitarra, cómo Lecciones, Consejos, Conceptos Básicos, Curiosidades, Recomendaciones...

Especialmente diseñada para ti, si eres guitarrista autodidacta y, con dos únicas premisas, que te diviertas y practiques con tu guitarra. 

 Todo lo necesario para divertirte y practicar lo tienes en Tabs Fácil.es, el complemento perfecto para tu aprendizaje y desde ahora tu Blog de Guitarra.

Adelante.

Aprende a Tocar la Guitarra:

Guía Fácil Futuro Guitarrista.

Imagen
    Quieres aprender a tocar la guitarra?   Olvídate de excusas y deja atrás tus dudas, la  Guía Fácil para el Futuro Guitarrista  es la herramienta perfecta para conseguirlo. La  Guía Fácil para el Futuro Guitarrista  es un método de guit arra, una guía fácil compuesta de las Lecciones y Ejercicios Básicos necesarios para adentrarte en el mundo de la guitarra y comenzar a tocarla de la manera más rápida y sencilla. Seguro que más de una vez te has planteado  aprender a tocar la guitarra . Para Año Nuevo, en vacaciones o de regreso de ellas… Pero siempre por una u otra razón nunca te has puesto a ello. Muy posiblemente algunas de las excusas que has puesto para no hacerlo han sido del tipo:     “Mis manos son muy pequeñas o muy grandes, me falta destreza en las manos, no quiero estudiar Teoría, ya no tengo edad, no dispongo del tiempo suficiente..."   La Guía Fácil para el Futuro Guitarrista.      "Con esta  Guía Fácil para el Futuro Guitarrista  no pretendo reescribir o rei

Tablatura de Jingle Bells ... Metalicamente de puta madre. Víctor de Andrés.

 




Cuando llegan estas fechas es de obligación tocar villancicos, ya sea solamente para practicar o para luego tocarlos ante la familia y amigos, claro que ahí estamos nosotros para darle el toque que creamos adecuado a nuestros gustos...

  Hace ya unos años que Víctor de Andrés publicó en su canal de YouTube unos covers para guitarra en el que interpretaba el famoso villancico al estilo de diferentes bandas mundialmente conocidas.

  He aprovechado la ocasión para dejaros un momento en tablatura del villancico "Jingle Bells" tocado por el gran Víctor de Andrés al estilo de varios de los grupos más representativos del mundo del rock y Heavy Metal cómo son ZZ TopMetallicaHelloween e Iron Maiden.

  Un saludo.









Jingle Bells al estilo de Helloween.


(0:54)

1.----------------------------|
2.-----------------6------11-10
3.-7-7-7--7-7-7--7-----5------|
4.-------------------8--------|
5.----------------------------|
6.----------------------------|

1.----------------------------|
2.----------------------------|
3.-12-10-8--------------------8
4.---------12-10-8----8-10-12-|
5.-----------------12---------|
6.----------------------------|

1.----------11-11-11--11-11-10
2.-------10------------------|
3.-10-12---------------------|
4.---------------------------|
5.---------------------------|
6.---------------------------|

1.-10-10-10-------10--------|
2.----------13-13----13---/18
3.--------------------------|
4.--------------------------|
5.--------------------------|
6.--------------------------|




Jingle Bells al estilo de ZZ Top.




(1:07)

1.----------------------------|
2.----------------------------|
3.-------7-7--5(7)-7--7-7--5(7)
4.---5-8----------------------|
5.-8--------------------------|
6.----------------------------|

1.----------------------------|
2.------6-------------6-------|
3.-7--7-----5--5(7)-7---7-5-5(7)
4.--------8-------------------|
5.----------------------------|
6.----------------------------|

1.---------------------------|
2.---6--------4-4-4--4-4p3--3
3.-7---7-5-------------------|
4.---------8-----------------|
5.---------------------------|
6.---------------------------|

1.-------------11-11-10--8-8--|
2.---3-----------------------11
3.-5---3--/10-----------------|
4.----------------------------|
5.----------------------------|
6.----------------------------|




Jingle Bells al estilo de Metallica.



(2:00)

1.---------------------------|
2.-13(15)-13(15)-13(15)-13(15)
3.---------------------------|
4.---------------------------|
5.---------------------------|
6.---------------------------|


1.----------------------13-----|
2.-13(15)-13(15)-13(15)----11-13
3.-----------------------------|
4.-----------------------------|
5.-----------------------------|
6.-----------------------------|

1.-11-------11-------11--14-11-|
2.----13-11----13-11-----------13
3.-----------------------------|
4.-----------------------------|
5.-----------------------------|
6.-----------------------------|

1.-14-11----14-11----14--------|
2.-------13-------13----16-16-16
3.-----------------------------|
4.-----------------------------|
5.-----------------------------|
6.-----------------------------|

1.---------------------------|
2.-16-16-15-15--18---16-13---|
3.-------------------------15|
4.---------------------------|
5.---------------------------|
6.---------------------------|





Jingle Bells al estilo de Iron Maiden.




(2:13)

1.-------------------------------|
2.---3-----------------3---------|
3.-----5-3---3-3h5p3h5---3-3h5p3h5
4.-3-------3---------------------|
5.-------------------------------|
6.-------------------------------|

1.----------------6---6----------|
2.---3--------6-8---8---8-6-8-6-8
3.-----5-3--7--------------------|
4.-5-----------------------------|
5.-------------------------------|
6.-------------------------------|

1.-------------------------------|
2.-6---6---6---------------------|
3.---7---7---7-5-7-5-7-5---5---5-|
4.-----------------------8---8---8
5.-------------------------------|
6.-------------------------------|

1.----------------3--------------|
2.------3-----6-6---6-4----------|
3.--------5-3-----------5-3------|
4.-5--5--------------------------|
5.---8---------------------------|
6.-------------------------------|

Comentarios