Un Nuevo Comienzo. Tablatura para Guitarra. Runa Llena.


 La noticia sorprendía a propios y extraños, Carlitos y Frank, dejaban Mägo de Oz, banda a la que habían pertenecido durante más de 25 años. No tardaban en anunciar  banda propia en la que poder seguir disfrutando de su forma de crear y transmitir música. Nacía RUNA LLENA, la magia estaba en marcha pero el proyecto debía comenzar a tomar forma. Mientras, no dejaba de crecer una gran expectación en torno a la nueva banda de los dos guitarristas.

Formación de Runa Llena.

 Enseguida se ponen en contacto con Joaquín "El Niño",  que fue batería sustituto en alguna de las giras de Mägo de Oz, en concreto en2006. Poco a poco van surgiendo varios nombres como los de Alex "TØRMËNTOR" al bajo y Eduardo Ortiz a los teclados. El proyecto comienza a funcionar y rápidamente se ilusionan con todo lo que lo rodea, estilo musical, forma de trabajo, composición, concepto, grabaciones, giras, etc., ahora sí, el grupo necesita un cantante.

 Nacho Ruiz cumple con creces las expectativas de técnica y versatilidad que Runa Llena necesita, un cantante que en las audiciones para vocalista de Mägo de Oz a la salida de José Andrea, quedó entre los tres finalistas.

 Teniendo todos claro los conceptos antes enumerados cómo el estilo musical, solo les queda añadir un instrumento mas para completar el proyecto, el violín. Otro gran músico formará parte de la banda, el elegido es Santiago Vokram.

Sencillo de adelanto: "Un nuevo comienzo."

 Una gran expectación y muchas ganas de conocer, o mejor dicho escuchar cómo suena el nuevo proyecto de Frank y Carlitos, los ex de Mägo de Oz, que después de más de 25 años han decidido cortar por lo sano y comenzar de cero con nueva banda.


  Runa Llena es el nombre que le daban a la formación y "Un nuevo comienzo" el título para el primer tema presentación, un tema que por fin podemos escuchar y afirmar sin duda alguna que, ha valido la pena la espera.


"Un nuevo comienzo" es un tema que nos devuelve 22 años atrás, al sonido y la frescura de discos como "La Leyenda de la Mancha" algo, que tanto hemos echado de menos algunos seguidores de los Mägo de siempre. Incluso, la voz de Nacho nos lleva a la primera parte, y para mí la mejor de "Legado de una Tragedia." Comparaciones que utilizo para recalcar lo que nos ha gustado el tema y las ganas que nos ha dejado de escuchar más.


 Un título que da forma a toda una declaración de intenciones y que define a la perfección la esencia de la banda, "Un nuevo comienzo" y del que hoy os quiero dejar un pequeño momento en tablatura para guitarra, para todos los que disfrutáis escuchando a estos grandes de la guitarra, ahora también tocando como ellos.

  Un saludo.



Un Nuevo Comienzo. Tablatura para Guitarra. Runa Llena.


1.------------------------|
2.------------------------|
3.------------------------|
4.-4-4-4--4-4-4-3-3-4-4-4-|
5.-2-2-2--2-2-2-2-2-2-2-2-|
6.------------------------|


1.------------------------|
2.------------------------|
3.------------------------|
4.-4-4-4-3-3-4-4-4--4-4-4-|
5.-2-2-2-2-2-2-2-2--2-2-2-|
6.------------------------|


1.------------------------|
2.------------------------|
3.------------------------|
4.-3-3--------------------|
5.-2-2-5--2-2--2-2--------|
6.-----3--0-0--0-0-----|...


1.------------------------|
2.------------------------|
3.------------------------|
4.-4-4--4-4--4-4----------4
5.-2-2--2-2--2-2--2-0---0-2
6.--------------------3---|


1.------------------------|
2.------------------------|
3.------------------------|
4.-4--4-4--4-4--4-4-------|
5.-2--2-2--2-2--2-2--2-0--|
6.-----------------------3|


1.------------------------|
2.------------------------|
3.------------------------|
4.---4-4--4-4--4-4--4-4---|
5.-0-2-2--2-2--2-2--2-2--2|
6.------------------------|


1.----------|
2.----------|
3.----------|
4.----------|
5.-0---0-5--|
6.---3---3--|

1.------------------------|
2.-/19-18--15-14---/19-18-|
3.--------------16--------|
4.------------------------|
5.------------------------|
6.------------------------|

1.-----------------------15
2.-15-14----/19-18-15-14--|
3.-------15---------------|
4.------------------------|
5.------------------------|
6.------------------------|


1.-14-15-14-12------------|
2.-------------14-15-12---|
3.----------------------15|
4.------------------------|
5.------------------------|
6.------------------------|

1.------------------------|
2.-12-14-12---------------|
3.----------15-12-11--12-11
4.------------------14----|
5.------------------------|
6.------------------------|




      "Sumido en la soledad...

1.------------------------|
2.--------7----------5----|
3.-----7---------4--------|
4.---9--9------7---7------|
5.------------------------|
6.-7---------5------------|


1.------------------------|
2.------------------------|
3.-----7-------------6----|
4.---5---5---------7---7--|
5.------------------------|
6.-3-----------5----------|



(1:45) " Un largo camino...

1.------------------------|
2.------------------------|
3.------------------------|
4.-------2------------0---|
5.-2-2-5---2-5--0-0-4---2-4
6.------------------------|


1.------------------------|
2.------------------------|
3.------------------------|
4.------------------------|
5.-2-2-4p2-5-4--0-0-4p0-5-4
6.------------------------|


1.------------------|
2.------------------|
3.------------------|
4.-4-4-4--4-4--4-4--|
5.-2-2-2--2-2--2-2--|
6.---------------...|


(3:48)

1.------------------------|
2.-/15--15-14--12-12-12-10|
3.------------------------|
4.------------------------|
5.------------------------|
6.------------------------|


1.------------------------|
2.-10-10-10----------12-12|
3.---------12-12-12-------|
4.------------------------|
5.------------------------|
6.------------------------|


1.------------------------|
2.-12-14-14-14-12-12-12---|
3.----------------------14|
4.------------------------|
5.------------------------|
6.------------------------|

1.------------------------|
2.-/15-/17-14--12-12-12-10|
3.------------------------|
4.------------------------|
5.------------------------|
6.------------------------|


1.------------------------|
2.-10-10-10----------12-14|
3.---------12-12-12-------|
4.------------------------|
5.------------------------|
6.------------------------|



(4:10)Pre Solo...

1.------------------------|
2.------------------------|
3.------------------------|
4.------------------------|
5.-2-4--4-4-4-4-4-4--4-5-4|
6.-0-2--2-2-2-2-2-2--2-3-2|


1.------------------------|
2.------------------------|
3.------------------------|
4.------------------------|
5.-2-4--4-4-4-4-4-4--4-5-4|
6.-0-2--2-2-2-2-2-2--2-3-2|


1.----|
2.----|
3.----|
4.-2--|
5.-0--|
6.----|


Solo...

1.------------------------|
2.-17(19)(17)--17(19)-----|
3.------------------------|
4.------------------------|
5.------------------------|
6.------------------------|


1.------------------------|
2.-17(19)(17)p15----------|
3.----------------16------|
4.---------------------/9-|
5.------------------------|
6.------------------------|


1.------------------------|
2.---------/12-10-8-7-----|
3.-7---7-9------------9(11)
4.---9--------------------|
5.------------------------|
6.------------------------|


1.------------------------|
2.--------------------H-H-|
3.-(9)(11)-----------/9-7-|
4.--------11(12)(11)------|
5.------------------------|
6.---------------------|...


Comentarios

Entradas populares de este blog

Tabs Fàcil de... The Final Countdown. Europe.