Bienvenid@ a Tabs Fácil.es un Blog de guitarra creado para l@s que os gusta tocar la guitarra y con el único objetivo de pasar un buen rato y divertirse sin dejar de practicar.

Coge tu Guitarra, ponte cómod@ y pasa un buen rato en Tabs Fácil.es, un blog para todos los que estáis aprendiendo o queréis aprender a tocar la guitarra, donde vas a encontrar cantidad de artículos relacionados con el mundo de la guitarra, cómo Lecciones, Consejos, Conceptos Básicos, Curiosidades, Recomendaciones...

Especialmente diseñada para ti, si eres guitarrista autodidacta y, con dos únicas premisas, que te diviertas y practiques con tu guitarra. 

 Todo lo necesario para divertirte y practicar lo tienes en Tabs Fácil.es, el complemento perfecto para tu aprendizaje y desde ahora tu Blog de Guitarra.

Adelante.

Aprende a Tocar la Guitarra:

Guía Fácil Futuro Guitarrista.

Imagen
    Quieres aprender a tocar la guitarra?   Olvídate de excusas y deja atrás tus dudas, la  Guía Fácil para el Futuro Guitarrista  es la herramienta perfecta para conseguirlo. La  Guía Fácil para el Futuro Guitarrista  es un método de guit arra, una guía fácil compuesta de las Lecciones y Ejercicios Básicos necesarios para adentrarte en el mundo de la guitarra y comenzar a tocarla de la manera más rápida y sencilla. Seguro que más de una vez te has planteado  aprender a tocar la guitarra . Para Año Nuevo, en vacaciones o de regreso de ellas… Pero siempre por una u otra razón nunca te has puesto a ello. Muy posiblemente algunas de las excusas que has puesto para no hacerlo han sido del tipo:     “Mis manos son muy pequeñas o muy grandes, me falta destreza en las manos, no quiero estudiar Teoría, ya no tengo edad, no dispongo del tiempo suficiente..."   La Guía Fácil para el Futuro Guitarrista.      "Con esta  Guía Fácil para el Futuro Guitarrista  no pretendo reescribir o rei

Jhonny B. Good. Tablatura para Guitarra. Chuck Berry.


  Poco se puede decir que no esté dicho ya, poco o nada se puede añadir a la hora de describir la figura de Chuck Berry y su influencia en la historia del rock. Lo mismo pasa con uno de sus temas estrella "Jhonny B. Good", un tema (del que años más tarde el propio Chuck confesaba que su riff principal había sido "robado,") que es todo un clásico que ha servido de inspiración y sido versioneado por prácticamente todo el que ha pasado tras sus pasos por la historia del rock and roll.

  Hoy quiero recordar ese momento de guitarra clásico e inmortal y dejaros en tablatura para guitarra parte de ese riff de inicio de "Jhonny B. Good".


  Un saludo.


Tabs Fácil de... Jhonny B. Good. Chuck Berry.



1.---------/6-6-6-/6-6-6--|
2.----6-8--/6-6-6-/6-6-6--|
3.-/7---------------------|
4.------------------------|
5.------------------------|
6.------------------------|


1.-/6-6-6-----------------|
2.-/6-6-6--9-8-6----------|
3.---------------6-7------|
4.-------------------8--8-8
5.----------------------8-8
6.------------------------|


1.------------------------|
2.--------------6-6-8-6---|
3.--------------7-7-7-7-/5|
4.-8-8-8-8-8-8------------|
5.-8-8-8-8-8-8------------|
6.------------------------|


1.------------------------|
2.------------6-------6---|
3.-3----8(10)---8(10)-----|
4.---5--------------------|
5.------------------------|
6.------------------------|


1.------------------------|
2.-------6--------6-------|
3.-8(10)----8(10)----8(10)|
4.------------------------|
5.------------------------|
6.------------------------|


1.-6----------------------|
2.-6-------6-------6------|
3.---8(10)---8(10)----8(10)
4.------------------------|
5.------------------------|
6.------------------------|


1.------------------6-----|
2.-6--------6-------6-----|
3.----8(10)---8(10)----8(10)
4.------------------------|
5.------------------------|
6.------------------------|


1.-6-------8-6------------|
2.---9-8-6------9-8-6-----|
3.--------------------8---|
4.------------------------|
5.------------------------|
6.------------------------|


1.-------6----------------|
2.-----6---9p8p6-------6--|
3.-6h7------------8(10)---|
4.------------------------|
5.------------------------|
6.------------------------|


1.-------------------|
2.-------6-----------|
3.-8(10)----8-6h7----|
4.----------------8--|
5.-------------------|
6.----------------|...

Comentarios