Bienvenid@ a Tabs Fácil.es un Blog de guitarra creado para l@s que os gusta tocar la guitarra y con el único objetivo de pasar un buen rato y divertirse sin dejar de practicar.

Coge tu Guitarra, ponte cómod@ y pasa un buen rato en Tabs Fácil.es, un blog para todos los que estáis aprendiendo o queréis aprender a tocar la guitarra, donde vas a encontrar cantidad de artículos relacionados con el mundo de la guitarra, cómo Lecciones, Consejos, Conceptos Básicos, Curiosidades, Recomendaciones...

Especialmente diseñada para ti, si eres guitarrista autodidacta y, con dos únicas premisas, que te diviertas y practiques con tu guitarra. 

 Todo lo necesario para divertirte y practicar lo tienes en Tabs Fácil.es, el complemento perfecto para tu aprendizaje y desde ahora tu Blog de Guitarra.

Adelante.

Aprende a Tocar la Guitarra:

Guía Fácil Futuro Guitarrista.

Imagen
    Quieres aprender a tocar la guitarra?   Olvídate de excusas y deja atrás tus dudas, la  Guía Fácil para el Futuro Guitarrista  es la herramienta perfecta para conseguirlo. La  Guía Fácil para el Futuro Guitarrista  es un método de guit arra, una guía fácil compuesta de las Lecciones y Ejercicios Básicos necesarios para adentrarte en el mundo de la guitarra y comenzar a tocarla de la manera más rápida y sencilla. Seguro que más de una vez te has planteado  aprender a tocar la guitarra . Para Año Nuevo, en vacaciones o de regreso de ellas… Pero siempre por una u otra razón nunca te has puesto a ello. Muy posiblemente algunas de las excusas que has puesto para no hacerlo han sido del tipo:     “Mis manos son muy pequeñas o muy grandes, me falta destreza en las manos, no quiero estudiar Teoría, ya no tengo edad, no dispongo del tiempo suficiente..."   La Guía Fácil para el Futuro Guitarrista.      "Con esta  Guía Fácil para el Futuro Guitarrista  no pretendo reescribir o rei

Creeping Death. Tablatura para Guitarra. Metallica.


  Del segundo disco de Metallica "Ride the Lightning" editado por el año 1984, se puede escuchar en su séptimo corte "Creeping Death" considerado por muchos, uno de los mejores temas de la banda, quizás sea por eso por lo que la banda lo suele utilizar para abrir sus conciertos.



  La canción habla de Las diez plagas de Egipto, en concreto de la décima plaga que, narra la muerte de los primogénitos, entre los que estaba el del faraón.  Un tema con el que se puede entender el estilo de la banda afincada en San Francisco, rápido y potente, con un sonido que define y marcaría el futuro del thrash metal.



  Hoy quiero dejarte unos momentos en tablatura para guitarra del tema, para que pases un buen rato con tu guitarra y practiques al mas puro estilo Metallica.


  Un saludo.


Tablatura fácil de... Creeping Death. Metallica.



1.------------------------|
2.------------------------|
3.------------------------|
4.---------9---------9-7--|
5.---------7---------7-5--|
6.-0-0-0-0---0-0-0-0------|


1.------------------------|
2.------------------------|
3.------------------------|
4.---------9---------9-7--|
5.---------7---------7-5--|
6.-0-0-0-0---0-0-0-0------|


1.------------------------|
2.------------------------|
3.------------------------|
4.---------9--9--------9-7
5.---------7--7--------7-5
6.-0-0-0-0-----0-0-0-0----|


1.------------------------|
2.------------------------|
3.------------------------|
4.--7---------9--9--------|
5.--5---------7--7--------|
6.----0-0-0-0------0-0-0-0


1.------------------|
2.------------------|
3.------------------|
4.-9-7--7-----------|
5.-7-5--5--7--5--5--|
6.---------5--3--2--|


1.------------------------|
2.------------------------|
3.------------------------|
4.-----2-----2---2-----2--|
5.-----2-----2---2-----2--|
6.-0-0---0-0---0---0-0---0


1.---------------|
2.---------------|
3.---------------|
4.---------------|
5.--2-3-2h3p2p0--|
6.------------|...


(0:38)

1.------------------------|
2.------------------------|
3.------------------------|
4.------------------------|
5.-----5-----5------4-4-4-|
6.-0-0-3-0-0-3-0-0--2-2-2-|


1.------------------------|
2.------------------------|
3.------------------------|
4.------------------------|
5.-4-4-4------5-----5-----|
6.-2-2-2--0-0-3-0-0-3-0-0-|


1.--------------|
2.--------------|
3.--------------|
4.--------------|
5.-4-4-4-4-4-4--|
6.-2-2-2-2-2-2--|


(3:19)

1.------------------------|
2.------------------------|
3.--------11-12-14-12-11-12
4.-14--14-----------------|
5.------------------------|
6.------------------------|


1.------------------------|
2.--------------------12-13
3.-11--------11-12-14-----|
4.----12--14--------------|
5.------------------------|
6.------------------------|


1.-----------14-15-17-15-14
2.-15-17--17--------------|
3.------------------------|
4.------------------------|
5.------------------------|
6.------------------------|


1.-12-/17--17-19-20-19-17-|
2.------------------------|
3.------------------------|
4.------------------------|
5.------------------------|
6.------------------------|


1.-15-14-15--15p14p12-|
2.--------------------|
3.--------------------|
4.--------------------|
5.--------------------|
6.--------------------|


1.-15p14p12--15p14p12-|
2.--------------------|
3.--------------------|
4.--------------------|
5.--------------------|
6.-----------------|...





Comentarios