Bienvenid@ a Tabs Fácil.es un Blog de guitarra creado para l@s que os gusta tocar la guitarra y con el único objetivo de pasar un buen rato y divertirse sin dejar de practicar.

Coge tu Guitarra, ponte cómod@ y pasa un buen rato en Tabs Fácil.es, un blog para todos los que estáis aprendiendo o queréis aprender a tocar la guitarra, donde vas a encontrar cantidad de artículos relacionados con el mundo de la guitarra, cómo Lecciones, Consejos, Conceptos Básicos, Curiosidades, Recomendaciones...

Especialmente diseñada para ti, si eres guitarrista autodidacta y, con dos únicas premisas, que te diviertas y practiques con tu guitarra. 

 Todo lo necesario para divertirte y practicar lo tienes en Tabs Fácil.es, el complemento perfecto para tu aprendizaje y desde ahora tu Blog de Guitarra.

Adelante.

Aprende a Tocar la Guitarra:

Guía Fácil Futuro Guitarrista.

Imagen
    Quieres aprender a tocar la guitarra?   Olvídate de excusas y deja atrás tus dudas, la  Guía Fácil para el Futuro Guitarrista  es la herramienta perfecta para conseguirlo. La  Guía Fácil para el Futuro Guitarrista  es un método de guit arra, una guía fácil compuesta de las Lecciones y Ejercicios Básicos necesarios para adentrarte en el mundo de la guitarra y comenzar a tocarla de la manera más rápida y sencilla. Seguro que más de una vez te has planteado  aprender a tocar la guitarra . Para Año Nuevo, en vacaciones o de regreso de ellas… Pero siempre por una u otra razón nunca te has puesto a ello. Muy posiblemente algunas de las excusas que has puesto para no hacerlo han sido del tipo:     “Mis manos son muy pequeñas o muy grandes, me falta destreza en las manos, no quiero estudiar Teoría, ya no tengo edad, no dispongo del tiempo suficiente..."   La Guía Fácil para el Futuro Guitarrista.      "Con esta  Guía Fácil para el Futuro Guitarrista  no pretendo reescribir o rei

Breaking the Law. Tablatura para Guitarra. Judas Priest.



  En Abril de 1980, hace 40 años, salía a la luz "British Steel" el sexto disco de estudio de Judas Priest y posiblemente uno de los mejores de su carrera. Con motivo del aniversario, la banda lanza un nuevo vídeo para el tema "Breaking the law" todo un clásico de la banda.



  "Acabábamos de regresar de una gran gira con AC/DC por Europa y fuimos directamente al estudio. Salimos de ese tour muy concienciados. AC/DC es una gran banda en términos y estructura de canciones. Entramos al estudio con algunas ideas muy básicas, y esos riffs como "Living after midnight", "Breaking the law", "Grinder"... todos salieron de donde estábamos en ese momento...  Todavía estábamos creciendo y tratando de encontrar quiénes éramos y qué hacer a continuación. "British Steel" es muy crudo y orgánico en ese sentido..." Declaraba Rob Halford, reconociendo la influencia de la banda australiana en la música del disco "British Steel."



  En cuanto al nombre de tan emblemático disco Ian Hill, el bajista, declaraba: " Yo pensaba que representaba todo lo que estábamos intentando hacer. Nosotros somos muy británicos en lo que a sonido se refiere, y el título simplemente me vino..."



  Hoy os quiero dejar un momento en tablatura para guitarra de uno de los temas del disco, "Breaking the law" un temazo para practicar y pasar un buen rato con la guitarra.



  Un saludo.



Tabs Fácil de... Breaking the Law. Judas Priest.


1.--------------------------|

2.--------------------------|

3.--------------------------|

4.--------------------------|

5.-0-2-3--0-2-3-0-2-3-----0-|

6.--------------------1-3---|


1.--------------------------|

2.--------------------------|

3.--------------------------|

4.--------------------------|

5.-----0---3-2--0-2-3--0-2-3

6.-1-3---3------------------|


1.--------------------------|

2.--------------------------|

3.--------------------------|

4.--------------------------|

5.-0-2-3-----0-----0---3-2--|

6.-------1-3---1-3---3------|


1.--------------------------|

2.--------------------------|

3.--------------------------|

4.-2---5-----2---2--5-----2-|

5.-0---3--5--0---0--3--5--0-|

6.--------3------------3----|


1.--------------------------|

2.--------------------------|

3.--------------------------|

4.--10-10---5---5--10--10---9

5.--8---8---3---3---8---8---7

6.--------------------------|


1.--------------------------|

2.------------------------10

3.-------------------------9

4.-2-2-2-2-2-2-2-2-2-2-2-2--|

5.-0-0-0-0-0-0-0-0-0-0-0-0--|

6.--------------------------|


1.--------------------------|

2.---------------------10--10

3.---------------------9----9

4.-2-2-2-2-2-2-2-2-2-2------|

5.-0-0-0-0-0-0-0-0-0-0------|

6.-----------------------|...

Comentarios