Última Entrada en Tabs Fácil.es:

Tabs Fácil de... We Stand As One. Burning Witches.

Imagen
Burning Witches nos presentaba el pasado 28 de mayo de 2021 su tercer larga duración, "The Witch Of The North" un disco que no deja indiferente a ningún seguidor del clásico sonido heavy metal. "The Witch Of The North" We Stand As One. Burning Witches. De los trece cortes que componen el último trabajo de las brujas del heavy metal, utilizaron "We Stand As One" para presentarlo el mismo día del disco, un tema cargado de melodía y sonido épico al más puro estilo heavy metal de toda la vida, un muy buen tema, dentro de un muy buen disco que seguro está haciendo pasar un buen rato a todo el que lo escucha. La banda hablaba así de su reciente trabajo: "¡Estamos felices y orgullosas de anunciar el nuevo disco y mostraros la excelente portada! Hemos crecido juntas como equipo y hemos llevado nuestro sonido al siguiente nivel, ¡Burning Witches en 2021 es más heavy y épico que nunca! ¡Conoce a LA BRUJA DEL NORTE y enamórate de nuestra evolución!&qu

Tabs fácil de... Chasing the Twilight Zone. Rage.

  La banda Rage nos presentaba un mes de Enero su álbum número 24 en su carrera discográfica. Un disco al que titulaban "Wings of Rage" y con el que volvían a constatar la plena forma en la que se encuentran y cómo dejaban atrás la sombra de Victor Smolski, ex guitarrista de la banda, gran culpa de ello la tenía sin duda, el que era su guitarrista por aquel entonces, Marcos Rodríguez, ya fuera de la banda.

Rage pasaban por tierras hispanas para descargar los temas de su, por entonces, recién estrenado plástico, dejando constancia lo que revelaba el disco y os mencionaba anteriormente, la excelente forma del grupo de origen alemán.

  A continuación os quiero dejar un pequeño fragmento en tablatura del tema que fue su último single antes de la salida a la calle del disco, "Chasing the Twilight Zone".
  Un saludo.


Tabs fácil de... Chasing the Twilight Zone. Rage.


1.-14-15-14----14-15-14--|
2.----------16----------16
3.-----------------------|
4.-----------------------|
5.-----------------------|
6.-----------------------|

1.-14-15-14----14-15-14--|
2.----------16----------16
3.-----------------------|
4.-----------------------|
5.-----------------------|
6.--------------------|...

1.-----------------------|
2.-----------------------|
3.-----------------------|
4.-5------1p0-----1p0--3-5
5.-3--1h3-----1h3------1-3
6.-----------------------|

1.-----------------------|
2.-----------------------|
3.-----------------------|
4.------1p0-----3p1--3-5-|
5.--1h3-----1h3------1-3-|
6.-----------------------|

1.-----------------------|
2.-----------------------|
3.-----------------------|
4.------1p0-----1p0--3---|
5.--1h3-----1h3------1-6-6
6.---------------------4-4

1.-------------------|
2.-------------------|
3.-------------------|
4.----------------5--|
5.-7-7--8-8--9-9--3--|
6.-5-5--6-6--7-7-----|


Comentarios

Lo Más Visto en Tabs Fácil.es:

Whole Lotta Love: Elegido Mejor Riff de la Historia del Rock.

Guitarrista Autodidacta: 3 Webs Básicas.

La Importancia de las Tablaturas.

Tabs Fácil de... Cada Vez Cadáver. Fito & Fitipaldis.

Cómic de Motörhead.

Acordes de... "Segundo Movimiento: Mierda de Filosofía." Robe.

Tabs fácil de... Electric Sunset. Twanguero.

Acordes para Guitarra de... Resistiré. Barón Rojo.

Tabs Fácil de... Argument About Pie. Paul Gilbert.

Tabs Fácil de... Far Beyond. Frozen Crown.