Última Entrada en Tabs Fácil.es:

Tabs Fácil de... We Stand As One. Burning Witches.

Imagen
Burning Witches nos presentaba el pasado 28 de mayo de 2021 su tercer larga duración, "The Witch Of The North" un disco que no deja indiferente a ningún seguidor del clásico sonido heavy metal. "The Witch Of The North" We Stand As One. Burning Witches. De los trece cortes que componen el último trabajo de las brujas del heavy metal, utilizaron "We Stand As One" para presentarlo el mismo día del disco, un tema cargado de melodía y sonido épico al más puro estilo heavy metal de toda la vida, un muy buen tema, dentro de un muy buen disco que seguro está haciendo pasar un buen rato a todo el que lo escucha. La banda hablaba así de su reciente trabajo: "¡Estamos felices y orgullosas de anunciar el nuevo disco y mostraros la excelente portada! Hemos crecido juntas como equipo y hemos llevado nuestro sonido al siguiente nivel, ¡Burning Witches en 2021 es más heavy y épico que nunca! ¡Conoce a LA BRUJA DEL NORTE y enamórate de nuestra evolución!&qu

Tocando la Guitarra con... Fito y Fitipaldis.



  Pasar un buen rato con tu guitarra mientras aprendes a tocarla es posible, pero si además lo haces con el genuino y autentico rock and roll que nos propone siempre en sus temas Fito y Fitipaldis, la diversión se multiplica y la sensación de haber aprendido a tocar la guitarra nos colmará de dopamina, tan importante en nuestro bienestar y salud.

  Para ello, te propongo unos pequeños fragmentos en tablatura para guitarra y acordes de algunos de sus temas pertenecientes a su ya extensa discografía, elegidos al azar, sin ninguna pretensión sobre gustos y/o debilidades.

  Pequeños fragmentos, como decía, cómodos riffs sencillos y muy identificables en algunos de sus temas más conocidos, así como unos acordes para guitarra, con los que podremos deleitar a los que nos pidan que toquemos algo para ellos, cuando los hayamos aprendido...


Quiero beber hasta perder el control.

  Canción de Los Secretos que Fito versionaba en su primer disco, "A puerta cerrada" allá por 1998. Lo que iba a ser un disco más íntimo y paralelo a sus proyectos, terminaría convirtiéndose en su actual banda. Un disco, como decía, en el que nos dejaba ya joyas como este "Quiero beber hasta perder el control."



Tablatura (riff inicio) para guitarra... Quiero beber hasta perder el control.


1.-0-0-----------------|
2.-----4-3-1-------1-1-|
3.-----------0-2p0-----|
4.---------------------|
5.---------------------|
6.---------------------|

1.----------|
2.----------|
3.-2p0----0-|
4.----1h2---|
5.----------|
6.-------|...

(1:40)

1.---------------------|
2.-4-5-4-5-------------|
3.---------5-----------|
4.-----------5-7-5--7/9
5.---------------------|
6.---------------------|

1.---------------------|
2.---------------------|
3.-7-------------------|
4.---9----7------------|
5.-----10---8-10-7-----|
6.-----------------/8--|


Por la boca vive el pez.

"Por la boca vive el pez" es el cuarto álbum de la banda Fito y Fitipaldis. Éste disco, en menos de dos semanas desde su lanzamiento ya había vendido mas de 100.000 copias.  Además en 2008 fue certificado cuádruple platino por vender la friolera de más de 320.000 copias.

"Hago canciones para mi. Escribo las que me gustaría escuchar y las letras hablan de mi porque no se hacer otra cosa. Siempre lo he hecho. Cuando nadie me publicaba un disco y ahora que tengo la suerte de ganarme la vida con ello"... Así explicaba Fito su fórmula para el éxito de Fito y Fitipaldis.



Tablatura para guitarra... Por la boca vive el pez.


1.-------8----4--------8
2.-----8---8--4------6-|
3.---8--------5----7---|
4.-10---------6--8-----|
5.---------------------|
6.---------------------|

1.-6--3----------------|
2.----4--3h4p3---------|
3.----5--------3h5-----8
4.------------------10-|
5.---------------------|
6.---------------------|

1.---8----4------------|
2.-8---8--4--8-6-4-3---|
3.--------5------------|
4.--------6------------|
5.---------------------|
6.---------------------|

1.---------------------|
2.---------------------|
3.-/5-3----------------5
4.------/3-1---------5-|
5.------------/3-1-3---|
6.---------------------|

1.---------------|
2.---/4-3--------|
3.--------5---5--|
4.-5--------5----|
5.---------------|
6.---------------|

"Algo lo que me invade

Do       La#         Do
todo viene de dentro

                    Sol#
nunca lo que me sacie

                         La#              Do
siempre quiero lobo hambriento..."


Antes de que cuente diez.

 "Antes de que cuente diez" es el quinto álbum de estudio de la banda Fito y Fitipaldis, grabado en junio de 2009. con este disco Fito y su banda volvía a demostrar que la sencillez es la esencia del buen rock and roll.



Tablatura para guitarra... Antes de que cuente diez.


1.---------------------|
2.---------------------|
3.-9(11)(9)-6---9(11)(9)
4.------------7--------|
5.---------------------|
6.---------------------|

1.---------------------|
2.---------------------|
3.-6---9(11)(9)-----9(11)
4.---7----------9-7----|
5.---------------------|
6.---------------------|

1.-------------|
2.-------------|
3.-(9)---------|
4.-----9-7--6--|
5.-------------|
6.----------|...


 Fa#m
" Puedo escribir y no disimular

         Mi   
es la ventaja de irse haciendo viejo

                Sim
no tengo nada para impresionar

              La                   Mi
ni por fuera ni por dentro..."


(1:13)
1.-------------------|
2.-------------------|
3.-------------------|
4.-9h11p9---------11-|
5.--------12-9-12----|
6.-------------------|

1.-------------------|
2.-------------------|
3.-------------------|
4.-9h11p9---------11-|
5.--------12-9-12----|
6.-------------------|

1.-------------------|
2.-------------------|
3.-------------------|
4.-9h11p9---------11-|
5.--------12-9-12----|
6.----------------|...

(4:18)

1.---------------------|
2.---------------------|
3.---------------------|
4.-7-6h7-6h7--6-7-9-7-6
5.---------------------|
6.---------------------|

1.---------------------|
2.---------------------|
3.---------------------|
4.-7-6h7-6h7--6-7-9-7-6
5.---------------------|
6.---------------------|

1.---------------------|
2.---------------------|
3.---------------------|
4.-7-6h7-6h7--6-7-9-7-6
5.---------------------|
6.---------------------|

1.-----------|
2.-----------|
3.-----------|
4.-7-----7h9-|
5.---7h9-----|
6.--------|...


Entre la espada y la pared.


 "Huyendo conmigo de mí" un disco que salía al mercado en 2014, después de cinco años sin disco en estudio de la banda. El tema elegido como single presentación fue "Entre la espada y la pared", un tema, en palabras del propio Fito: "agradable".



Tablatura para guitarra (Inicio) de... Entre la espada y la pared.


1.-------0-------------|
2.-----1---3-1--------1
3.-0h2---------2--0h2--|
4.---------------------|
5.---------------------|
6.---------------------|

1.-0-------------------|
2.---3-1--0-----1------|
3.----------2-0--------|
4.-----------------3-2-|
5.---------------------|
6.---------------------|

1.---------------------|
2.-------------1-------1
3.-----------0-----0h2-|
4.-2-0---0-2-----------|
5.-----3---------------|
6.---------------------|

1.-0--------------0----|
2.---3-1--------1---3-1
3.-------2--0h2--------|
4.---------------------|
5.---------------------|
6.---------------------|

1.---------------------|
2.-0-----1-------------|
3.---2-0---------------|
4.----------3-2--------|
5.-------------------3/5
6.---------------3/5---|

1.------------|
2.--------5---|
3.-----5------|
4.---5--------|
5.-7----------|
6.---------|...



Entre dos mares. Fitografía.

  Con el buen rollo que siempre transmite en sus canciones, con su inseparable "Basurillas" el nombre de su guitarra y con 20 años a sus espaldas recorriendo las carreteras bajo el nombre de Fito y Fitipaldis, nos presentaba "Fitografía", un extenso recopilatorio en el que encontrábamos temas como "Entre dos mares" uno de los últimos temas que grabó con Platero y tú y que salía a la luz a finales del año 2017.


Tablatura para guitarra... Entre dos mares.


1.-2-2-2---------------|
2.-3-3-3---------------|
3.-2-2-2----2----------|
4.-0-0-0-/4---4-2-0----|
5.------------------2p0
6.---------------------|

1.-0-0-0---------------|
2.-2-2-2---------------|
3.-2-2-2---------------|
4.-2-2-2-------2-------|
5.-0-0-0-0-2/4---4-2-0-|
6.---------------------|

1.-----2-2-2------5----|
2.-----3-3-3--5/7---7-5
3.-----2-2-2-----------|
4.-----0-0-0-----------|
5.---------------------|
6.-2p0-----------------|

1.--------0-0-0--------|
2.--------2-2-2----5---|
3.-6-4-2--2-2-2-/6---6-4
4.--------2-2-2--------|
5.--------0-0-0--------|
6.---------------------|

1.---------2-2-2------5
2.---------3-3-3--5/7--|
3.-2-------2-2-2-------|
4.---4-2p0-0-0-0-------|
5.---------------------|
6.---------------------|

1.---------------------|
2.-7-5--------------5--|
3.-----6-4-2-----/6---6
4.-----------2-2-------|
5.-----------0-0-------|
6.---------------------|

1.----------------|
2.----------------|
3.-4-2-------2-2--|
4.-----4-2p0-0-0--|
5.----------------|
6.-------------|...

(2:38)

1.---------------------|
2.-7h8p7----------7h8p7
3.-------9p7h9/11------|
4.---------------------|
5.---------------------|
6.---------------------|

1.---------------------|
2.--------------7h8-8p7
3.-9p7h9-/11-11--------|
4.---------------------|
5.---------------------|
6.---------------------|

1.---------------------|
2.-h5----5h7-----------|
3.----7------7h9-7h6---|
4.-------------------9/7
5.---------------------|
6.---------------------|

1.---------------------|
2.-7-8-7/5--3--5-7--7-8
3.---------------------|
4.---------------------|
5.---------------------|
6.---------------------|

1.---------------------|
2.-7--5--3h5/7-7--7-8--|
3.---------------------|
4.---------------------|
5.---------------------|
6.---------------------|

1.---------------------|
2.-7h8p7/5----3h5--5p3-|
3.---------7-----------|
4.---------------------|
5.---------------------|
6.---------------------|

1.----------|
2.----------|
3.-7-6------|
4.-----7/9--|
5.----------|
6.-------|...



Comentarios

Lo Más Visto en Tabs Fácil.es:

Whole Lotta Love: Elegido Mejor Riff de la Historia del Rock.

Guitarrista Autodidacta: 3 Webs Básicas.

La Importancia de las Tablaturas.

Tabs Fácil de... Cada Vez Cadáver. Fito & Fitipaldis.

Cómic de Motörhead.

Acordes de... "Segundo Movimiento: Mierda de Filosofía." Robe.

Tabs fácil de... Electric Sunset. Twanguero.

Acordes para Guitarra de... Resistiré. Barón Rojo.

Tabs Fácil de... Argument About Pie. Paul Gilbert.

Tabs Fácil de... Far Beyond. Frozen Crown.