Última Entrada en Tabs Fácil.es:

Tabs Fácil de... We Stand As One. Burning Witches.

Imagen
Burning Witches nos presentaba el pasado 28 de mayo de 2021 su tercer larga duración, "The Witch Of The North" un disco que no deja indiferente a ningún seguidor del clásico sonido heavy metal. "The Witch Of The North" We Stand As One. Burning Witches. De los trece cortes que componen el último trabajo de las brujas del heavy metal, utilizaron "We Stand As One" para presentarlo el mismo día del disco, un tema cargado de melodía y sonido épico al más puro estilo heavy metal de toda la vida, un muy buen tema, dentro de un muy buen disco que seguro está haciendo pasar un buen rato a todo el que lo escucha. La banda hablaba así de su reciente trabajo: "¡Estamos felices y orgullosas de anunciar el nuevo disco y mostraros la excelente portada! Hemos crecido juntas como equipo y hemos llevado nuestro sonido al siguiente nivel, ¡Burning Witches en 2021 es más heavy y épico que nunca! ¡Conoce a LA BRUJA DEL NORTE y enamórate de nuestra evolución!&qu

Tabs Fácil de... El Padrino. B.S.O. (Cover). Slash.

  Slash es todo un icono dentro del mundo de la guitarra eléctrica. El singular guitarrista de los Guns n' Roses no se conformó con vivir de rentas y después de salir de la banda, continuó y continúa con su carrera en solitario...

 Slash: la actualidad del guitarrista.

  En la actualidad, es embajador de Gibson, guitarrista con Myles Kennedy y ha retomado su banda original, con la que no dejan de acrecentar los rumores de nuevo disco, a la vez que volvía a los escenarios junto a Axl Rose.

Slash y El Padrino.

  Sería difícil elegir uno o varios temas para definir su estilo o las mejores composiciones del guitarrista pero, hay una que, lo volvió a lanzar y diferenciar de los demás guitarristas y ese tema es el cover de la banda sonora original de El Padrino.

Tabs Fácil de... El Padrino. (Cover). Slash.


1.------------------------|
2.--------17-16----17----16
3.-----18-------18----18--|
4.-/18--------------------|
5.------------------------|
6.------------------------|

1.------------------------|
2.-----------------17-16--|
3.-18-----------18-------18
4.----19-18--18-----------|
5.------------------------|
6.------------------------|

1.------------------------|
2.-17----16---------------|
3.----18----18------------|
4.-------------17(18)-17-16
5.------------------------|
6.------------------------|

1.------------------------|
2.-------14-15(16)(15)----|
3.----14------------------|
4.-16-------------------16
5.------------------------|
6.------------------------|

1.------------------------|
2.----13-13(14)-----------|
3.-14---------------------|
4.---------------18-18(19)
5.------------------------|
6.------------------------|

1.------------------------|
2.------------------------|
3.------(16)15--13-13(14)-|
4.-(18)-------------------|
5.------------------------|
6.------------------------|

1.------------------------|
2.------------------------|
3.-(13)--11h13p11p9-------|
4.------------------10-11-|
5.------------------------|
6.------------------------|

1.------------------------|
2.-14-14-13-12--16--------|
3.-----------------16-14--|
4.------------------------|
5.------------------------|
6.------------------------|

1.------------------------|
2.------------------------|
3.-13h14p13h14p13--12-12(13)
4.------------------------|
5.------------------------|
6.------------------------|

1.------------------------|
2.------------------------|
3.-12-11--14(13)--13-11-13
4.------------------------|
5.------------------------|
6.------------------------|

1.---------------------|
2.---------------------|
3.-13(14)(13)(14)(13)--|
4.---------------------|
5.---------------------|
6.------------------|...



Comentarios

Lo Más Visto en Tabs Fácil.es:

Whole Lotta Love: Elegido Mejor Riff de la Historia del Rock.

Guitarrista Autodidacta: 3 Webs Básicas.

La Importancia de las Tablaturas.

Tabs Fácil de... Cada Vez Cadáver. Fito & Fitipaldis.

Cómic de Motörhead.

Acordes de... "Segundo Movimiento: Mierda de Filosofía." Robe.

Tabs fácil de... Electric Sunset. Twanguero.

Acordes para Guitarra de... Resistiré. Barón Rojo.

Tabs Fácil de... Argument About Pie. Paul Gilbert.

Tabs Fácil de... Far Beyond. Frozen Crown.