Última Entrada en Tabs Fácil.es:

Tabs Fácil de... We Stand As One. Burning Witches.

Imagen
Burning Witches nos presentaba el pasado 28 de mayo de 2021 su tercer larga duración, "The Witch Of The North" un disco que no deja indiferente a ningún seguidor del clásico sonido heavy metal. "The Witch Of The North" We Stand As One. Burning Witches. De los trece cortes que componen el último trabajo de las brujas del heavy metal, utilizaron "We Stand As One" para presentarlo el mismo día del disco, un tema cargado de melodía y sonido épico al más puro estilo heavy metal de toda la vida, un muy buen tema, dentro de un muy buen disco que seguro está haciendo pasar un buen rato a todo el que lo escucha. La banda hablaba así de su reciente trabajo: "¡Estamos felices y orgullosas de anunciar el nuevo disco y mostraros la excelente portada! Hemos crecido juntas como equipo y hemos llevado nuestro sonido al siguiente nivel, ¡Burning Witches en 2021 es más heavy y épico que nunca! ¡Conoce a LA BRUJA DEL NORTE y enamórate de nuestra evolución!&qu

Tablaturas Para Guitarra de Películas.


   Cuando estamos aprendiendo a tocar la guitarra, enseguida nos pica el gusanillo de comenzar a tocar algo conocido y relativamente sencillo. Enseguida, nos vienen a la cabeza esas melodías para guitarra de nuestras canciones favoritas, pero, no siempre, también nos encontramos con esos temas, como son las bandas sonoras de nuestras pelis favoritas que, aunque no estén tocadas con guitarra originalmente, podemos adaptar para tocarlas con nuestra guitarra, lo que viene siendo un cover...

Porqué aprender melodías.

... Y es que, a la hora de aprender a tocar la guitarra,  un recurso muy interesante es el de aprender a tocar determinadas melodías. Es conveniente, para hacer esto, siempre escoger melodías que sean sencillas, que nos resulten fáciles de ejecutar.

  Por otro lado, conviene que sean melodías que ya conozcamos de antemano ya que, de alguna forma son melodías que tenemos memorizadas, las podemos cantar,  o silbar. Sin darnos cuenta, conectar el cerebro con nuestra guitarra será un buen ejercicio muy completo y beneficioso, por ejemplo, para nuestro oído y nuestra percepción musical.

Conocidas y sencillas tablaturas de bandas sonoras.

Prepárate para disfrutar de algunas de las más conocidas bandas sonoras originales, ya sea a modo de cover o en su más "literal" versión original de guitarra famosas, y pásatelo en grande mientras te diviertes y aprendes:


- Piratas del Caribe. La archiconocida saga de piratas liderada por Jack Sparrow no es una banda sonora para guitarra, pero seguro que has oído decenas de versiones en todos los estilos posibles guitarreros, y es que, es una melodía fácilmente reconocible y sencilla de ejecutar, una combinación perfecta para practicar y coger confianza con nuestra guitarra.


Tablatura fácil de Piratas del Caribe.

1.-----------------------|
2.-----------------------|
3.-----------------------|
4.------------2-3-3--3-5-|
5.---3-5-5--5------------|
6.-5---------------------|


1.-----------------------|
2.-----------------------|
3.-----------------------|
4.-2-2-------------------|
5.-----5-3-3-5----3-5-5--5
6.--------------5--------|


1.-----------------------|
2.-----------------------|
3.-----------------------|
4.-2-3-3--3-5-2-2--------|
5.----------------5-3-5--|
6.-----------------------|


1.-----------------------|
2.-----------------------|
3.-----------------------|
4.------------------5-7-8
5.---3-5-5--5-7-8-8------|
6.-5---------------------|


1.-----------------------|
2.-----------------------|
3.-----------------------|
4.-8--7-5-7----3-3-5-7---|
5.----------5----------5-|
6.-----------------------|


1.-----------------------|
2.-----------------------|
3.--------------------5-7
4.-3-5-2-2--2-3-2---7----|
5.-----------------------|
6.-----------------------|


1.-----------------------|
2.------5-6-6--6-8-5-5---|
3.-7--7----------------7-|
4.-----------------------|
5.-----------------------|
6.-----------------------|


1.-----------------------|
2.--------------------5-6
3.-5-5-7----5-7-7--7-----|
4.--------7--------------|
5.-----------------------|
6.-----------------------|


1.-----------------------|
2.-6--6-8-5-5------------|
3.------------7-5-7----5-7
4.-------------------7---|
5.-----------------------|
6.--------------------|...




-Juego de Tronos. Ésta vez hablamos de una serie de renombre mundial. Ha batido récords de audiencias por todo el mundo, seguro que no queda casi nadie en el planeta que no haya oído hablar de Juego de Tronos y, cómo la anterior, no es una banda sonora para guitarra, pero existen cientos de versiones para guitarra, Guitar Zøna también tiene la suya.


Tablatura fácil de Juego de Tronos.

1.-----------------------|
2.-8------6-8------6-8---|
3.---5--8-----5--8-----5-|
4.-----------------------|
5.-----------------------|
6.-----------------------|

1.-----------------------|
2.---6-8----5-6-8----5-6-8
3.-8-----5--------5------|
4.-----------------------|
5.-----------------------|
6.-----------------------|

1.-----------------------|
2.----5-6-8----5-6-8----5
3.-5--------5--------5---|
4.-----------------------|
5.-----------------------|
6.-----------------------|

1.-----------------------|
2.-6-8-------------------|
3.-----5-----------------|
4.---------5------3-5----|
5.-----------3--6-----3--|
6.-------------------|...



-Star wars. Mítica donde las haya, cautivó a varias generaciones, y en los últimos años vuelve a la carga con nuevos episodios para la saga. Otra banda sonora convertida en cover que resulta bastante sencilla y fácil de ejecutar y hacerla tuya.


Tablatura fácil de Star Wars.

1.---------------------3-|
2.-----------3--1-0------3
3.-------0-0--------2----|
4.-0-0-0-----------------|
5.-----------------------|
6.-----------------------|


1.-------3-------------|
2.-1-0-----3--1-0-1----|
3.-----2------------2--|
4.---------------------|
5.---------------------|
6.---------------------|

1.---------------------3-|
2.-----------3--1-0------3
3.-------0-0--------2----|
4.-0-0-0-----------------|
5.-----------------------|
6.-----------------------|


1.-------3-------------|
2.-1-0-----3--1-0-1----|
3.-----2------------2--|
4.---------------------|
5.---------------------|
6.---------------------|


1.---------------------|
2.-------1-0-----------|
3.-----------2-0-0-2-4-2
4.-0-0-2---------------|
5.---------------------|
6.---------------------|


1.---------------------|
2.-------------1-0-----3
3.-----------------2-0-|
4.-2-4---0-0-2---------|
5.---------------------|
6.---------------------|


1.---------------------|
2.-------------1-0-----|
3.-2-2-------------2-0-0
4.-------0-0-2---------|
5.---------------------|
6.---------------------|


1.----------------3-1--|
2.------------3-3-----4
3.-2-4-2---------------|
4.-------2-4-----------|
5.---------------------|
6.---------------------|


1.--------------|
2.-3-1--------3-|
3.-----3-2-0----|
4.--------------|
5.--------------|
6.--------------|



- El Padrino. En este caso sin quitarle importancia a la banda sonora y a la película, todo un clásico del cine, película de culto para aficionados e incluso futuros directores, tiramos de la versión o cover que interpreta Slash y que la ha hecho más popular si cabe, al menos, entre los guitarristas, ya que, como sabes tampoco es una banda sonora para guitarra.


Tabs Fácil de... El Padrino. (Cover). Slash.

1.------------------------|
2.--------17-16----17----16
3.-----18-------18----18--|
4.-/18--------------------|
5.------------------------|
6.------------------------|

1.------------------------|
2.-----------------17-16--|
3.-18-----------18-------18
4.----19-18--18-----------|
5.------------------------|
6.------------------------|

1.------------------------|
2.-17----16---------------|
3.----18----18------------|
4.-------------17(18)-17-16
5.------------------------|
6.---------------------|...




- Crossroads. Cruce de caminos. Ésta, ésta si es una banda sonora de guitarra, una película de guitarristas que trata ni más ni menos que el mito de cómo vender tu alma al diablo para convertirte en un gran guitarrista.
  Aunque no se encuentra entre los temas que se publicaron como banda sonora, "La caja de trucos de Eugene" tema compuesto por el gran Steve Vai, que por cierto, protagoniza el duelo final, es sin lugar a dudas, el más escuchado junto a la escena del duelo anteriormente citada.
  No es una tablatura sencilla, hablamos de un nivel más avanzado y por eso mismo, cuando consigamos dominarla nos transportará a otro nivel dentro del aprendizaje guitarrero.


Tabs fácil de... Eugene's trick bag. (Crossroads). Steve Vai.

1.-----------------------|
2.-----------------------|
3.-2h4p2h5p2h4p2h4p5p2h4p
4.-----------------------|
5.-----------------------|
6.-----------------------|

1.-----------------------|
2.-----------------------|
3.-2h4p2h5p2h4p2h4p5p2h4p
4.-----------------------|
5.-----------------------|
6.-----------------------|

1.-----------------------|
2.-----------------------|
3.-2h4p2h5p2h4p2h4p5p2h4p
4.-----------------------|
5.-----------------------|
6.--------------------|...

1.----------------8-12-8-|
2.-------------10--------|
3.---------5-9-----------|
4.-------7---------------|
5.-----7-----------------|
6.-5h8-------------------|

1.-----------------------|
2.-10--------------------|
3.----9-5----------------|
4.--------7-----------6-9
5.----------------5-7----|
6.----------5h8-7-----|...



  Sin duda, no están todas las que son, ni son todas las que están pero estos cinco temas, cinco melodías en tablatura de bandas sonoras colocadas en orden de dificultad, se convertirán en tus próximos ejercicios para aprender a tocar la guitarra...

Comentarios

Lo Más Visto en Tabs Fácil.es:

Whole Lotta Love: Elegido Mejor Riff de la Historia del Rock.

Guitarrista Autodidacta: 3 Webs Básicas.

La Importancia de las Tablaturas.

Tabs Fácil de... Cada Vez Cadáver. Fito & Fitipaldis.

Cómic de Motörhead.

Acordes de... "Segundo Movimiento: Mierda de Filosofía." Robe.

Tabs fácil de... Electric Sunset. Twanguero.

Acordes para Guitarra de... Resistiré. Barón Rojo.

Tabs Fácil de... Argument About Pie. Paul Gilbert.

Tabs Fácil de... Far Beyond. Frozen Crown.