Ir al contenido principal

ÚLTIMA ENTRADA EN TABSFÁCIL:

Tabs fácil de... Black sheep of the family. Ritchie Blackmore's Rainbow.

Tablatura fácil para guitarra de... Black sheep of the family. Ritchie Blackmore's Rainbow.

  La fórmula del cuentagotas le funcionó el año pasado a Ritchie Blackmore y sus Rainbow y este año de cara al verano y los conciertos y festivales, vuelve a hacer lo mismo, lanzando una nueva versión de "Black sleep of the family"...

"Black sheep of the family" Rainbow."Black sheep of the family" es una adaptación que los Rainbow ya lanzaran en su primer disco y, que vuelven a rescatar más de 40 años después para promocionar el regreso de los de Ritchie Blackmore, en cuyas filas cuenta ésta vez a las voces con Ronnie Romero ex-Lords of Black.

"Una de mis canciones favoritas del primer álbum de Rainbow" comentaba el propio Ronnie en la presentación del single.

Tabs fácil de... Black sheep of the family. Ritchie Blackmore's Rainbow.
1.---------------------| 2.---------------------| 3.---------------------| 4.-2-2--0-0--2-2--2-2--| 5.---------------------| 6.…

Tabs fácil de... El Cruzado. El secreto de los Templarios. Legado de una Tragedia IV.

Tablatura fácil para guitarra de "El Cruzado".

  "El Cruzado" es el primer single de la cuarta entrega de la saga "Legado de una Tragedia". Joaquin Padilla nos presenta su nueva creación, ésta vez, basada en la historia de los Caballeros Templarios y que lleva por título "El Secreto de los Templarios".


Legado de una Tragedia en Directo.

  Y es que somos muchos a los que nos gustaría ver en concierto como suena "Legado de una Tragedia" algo más bien complicado, cómo bien relata Joaquin Padilla:
“Todos los cantantes que aparecen en el disco tienen sus grupos: Saratoga, Avalanch, Saurom, Ópera Magna, etc. Y obviamente quieren tocar con sus bandas, con agendas muy apretadas. Eso hace imposible el poder llevar de gira esta obra.
Por otro lado, preparar un show de Legado de una Tragedia, imaginemos una ocasión única en La Riviera de Madrid, tampoco es viable. Hay que llevar coros, orquesta, y hacer que todos los músicos estén durante varias semanas estudiando para un show de 3 horas, que no se va a volver a repetir. Los textos, los desarrollos no son sencillos, requeriría de una preparación muy amplia y muchos ensayos por parte de todos, ya que yo si lo hiciera querría que fuera lo más completo posible. Sería mucho trabajo para el rendimiento que se podría obtener, dando por hecho que llenáramos La Riviera que es mucho suponer. Más ganas que yo no tiene nadie, pero la única opción posible sería que viniera un sponsor con el que poder hacer un show en condiciones (NDR: Promotores, tomad nota, hay que conseguir que algún día esto se haga realidad)”.

  Disfruta, aprende y practica con tu guitarra con un momento en Tablatura del tema "El Cruzado".


El Cruzado. El secreto de los Templarios.



(0:30)

1.-------------------------|
2.-------------------------|
3.-2-4-5--4-2-2-4-5-4--5-7-9
4.-------------------------|
5.-------------------------|
6.-------------------------|

1.-------------------------|
2.-------------------------|
3.-7-5-5-7-9-7--7-9-10-9-7-7
4.-------------------------|
5.-------------------------|
6.-------------------------|

1.-------------------------|
2.-------------------------|
3.-10-7-9-7-5-5--2-4-5--2-4
4.-------------------------|
5.-------------------------|
6.-------------------------|

1.------|
2.--1---|
3.----2-|
4.------|
5.------|
6.------|

1.-------------------------|
2.-------------------------|
3.-2-4-5--4-2-2-4-5-4--5-7-9
4.-------------------------|
5.-------------------------|
6.-------------------------|

1.-------------------------|
2.-------------------------|
3.-7-5-5-7-9-7--7-9-10-9-7-7
4.-------------------------|
5.-------------------------|
6.-------------------------|

1.-------------------------|
2.-------------------------|
3.-10-7-9-7-5-5--2-4-5--2-4
4.-------------------------|
5.-------------------------|
6.-------------------------|

1.------|
2.--0-2-|
3.------|
4.------|
5.------|
6.------|...

(3:04)Solo.

1.-------------------------|
2.-------------------------|
3.-----------------7----7--|
4.-7-9-10-9-7-9-10---10----|
5.-------------------------|
6.-------------------------|

1.-------------------------|
2.-----------10---8(10)--/10
3.----7(9)-9----9----------|
4.-10----------------------|
5.-------------------------|
6.-------------------------|

1.-8-10-10(12)-10(12)-10(12)
2.-------------------------|
3.-------------------------|
4.-------------------------|
5.-------------------------|
6.-------------------------|

1.-10(12)-10(12)-10(12)-8--|
2.------------------------10
3.-------------------------|
4.-------------------------|
5.-------------------------|
6.-------------------------|

1.-8----8-10----|
2.---10------10-|
3.--------------|
4.--------------|
5.--------------|
6.--------------|...

Comentarios

LO MÁS BUSCADO:

Tabs fácil de... Black sheep of the family. Ritchie Blackmore's Rainbow.

Tablatura fácil para guitarra de... Black sheep of the family. Ritchie Blackmore's Rainbow.

  La fórmula del cuentagotas le funcionó el año pasado a Ritchie Blackmore y sus Rainbow y este año de cara al verano y los conciertos y festivales, vuelve a hacer lo mismo, lanzando una nueva versión de "Black sleep of the family"...

"Black sheep of the family" Rainbow."Black sheep of the family" es una adaptación que los Rainbow ya lanzaran en su primer disco y, que vuelven a rescatar más de 40 años después para promocionar el regreso de los de Ritchie Blackmore, en cuyas filas cuenta ésta vez a las voces con Ronnie Romero ex-Lords of Black.

"Una de mis canciones favoritas del primer álbum de Rainbow" comentaba el propio Ronnie en la presentación del single.

Tabs fácil de... Black sheep of the family. Ritchie Blackmore's Rainbow.
1.---------------------| 2.---------------------| 3.---------------------| 4.-2-2--0-0--2-2--2-2--| 5.---------------------| 6.…

Tabs fácil de... Quererme así. Leo Jimenez.

Tablatura para guitarra de Quererme así. Leo Jimenez. Leo Jimenez vuelve a la carga y nos presenta su tercer disco bajo el nombre de Leo Jimenez, cuarto en solitario, cuyo título es "Mesías."
Leo Jimenez "Mesías."
"Mesías" es un álbum cargado de influencias para conseguir ese sonido duro, veloz y potente que caracteriza a Leo y que también le viene a la tesitura de su voz:  "Tenemos esa rabia del trhash con la melodía del metal... con la esencia de los 90..." aclaraba el propio Leo en la entrevista de presentación del disco.
  El último single del disco es "Quererme así" en el que cuenta con la colaboración de Gema Hernández, y que es además, con el que presentaron el disco.
  Ahora puedes disfrutar y practicar con tu guitarra con un fragmento en tablatura para guitarra de la canción "Quererme así" aquí, en TabsFácil.es.

Tabs fácil de... Quererme así. Leo Jimenez.
(1:06) Estribillo.
"Quererme así, es como...
1.--------------------…

Tabs fácil de... Te traeré el horizonte feat Ara Malikian.

Tablatura fácil para guitarra de "Te traeré el horizonte" Mägo de Oz.
 El 8 de Marzo regresaban los madrileños Mägo de Oz  y acababan con 5 años de sequía, lanzando un nuevo trabajo, "Ira Dei", la segunda parte de una nueva Opera Rock o Historia Musicada.


Mägo de Oz "Ira Dei".  Con el 13º disco de estudio de la banda han querido volver a su sonido más duro y heavy, como comentan en una entrevista: "Cuando un grupo se hace mayor va suavizando sus canciones, pierde la rabia del principio. Un grupo joven, del tipo de música que sea, pasa muchas calamidades para conseguir un contrato y eso se refleja en sus letras, esa ira y rebeldía de los comienzos es única. Cuando tienes la vida resuelta ya no eres rebelde y eso se nota en la música, te arriesgas menos y es más conformista. Por este motivo decidimos hacer un disco parecido a Gaia II. "
  Atrás quedaban algún que otro recopilatorio, disco de versiones y una extensa gira que, colocan a la banda como u…

Tabs fácil de... Tu Funeral. Mägo de Oz.

Tablatura fácil para guitarra de "Tu funeral." Mägo de Oz.
 El 8 de Marzo los madrileños Mägo de Oz acababan con 5 años de sequía y lanzaban un nuevo trabajo, "Ira Dei"


Mägo de Oz "Ira Dei".  Con el 13º disco de estudio de la banda han querido volver a su sonido más duro y heavy, como comentan en una entrevista: "Cuando un grupo se hace mayor va suavizando sus canciones, pierde la rabia del principio. Un grupo joven, del tipo de música que sea, pasa muchas calamidades para conseguir un contrato y eso se refleja en sus letras, esa ira y rebeldía de los comienzos es única. Cuando tienes la vida resuelta ya no eres rebelde y eso se nota en la música, te arriesgas menos y es más conformista. Por este motivo decidimos hacer un disco parecido a Gaia II. "
  Atrás quedaban algún que otro recopilatorio, disco de versiones y una extensa gira que, colocan a la banda como un referente dentro del rock en particular y la música en general, hecha en castellano…

Tabs fácil de... Raven's Flight. Amon Amarth.

Tablatura para guitarra de Raven's Flight. Amon amarth.
Se estaba haciendo esperar el regreso de los suecos Amon Amarthpero por fin lo han anunciado, hace apenas unos días, “Berserker“, será el título del disco y estará disponible desde el 3 de Mayo a través de Metal Blade Records.
  Cómo no, junto con el disco, la banda de Viking Metal, estrenó la canción “Raven’s Flight“, como adelanto del disco, del que puedes revisar a continuación el tracklist.
Tracklist de “Berserker”:
Fafner’s Gold. Crack The Sky. Mjolner, Hammer Of Thor. Shield Wall. Valkyria. Raven’s Flight. Ironside. The Berserker At Stamford Bridge. We Can Set Our Sails. When Once Again. Wings Of Eagles. Into The Dark.
  Conviértete en todo un virtuosos del Viking Metal tocando al más puro estilo de Amon Amarth, este momento en tablatura fácil para guitarra de "Raven's Flight" aquí, en TabsFácil.es.
Tabs fácil de... Raven's Flight. Amon Amarth. (3:20) Solo
1.-------------------------| 2.-------------------------| 3.----5-…

Tabs Fácil de... Malefic Circus. Zenobia.

Tablatura Fácil de... Malefic Circus. Zenobia. Zenobia, la banda riojana de heavy metal anunciaba gira presentándonos un tema inédito "Malefic Circus" para el que contaban con algunas colaboraciones muy especiales, Fernanda Lira de Nervosay Jake E. cantante de Cyhra.
  "Malefic Circus" es un tema tremendo en el que podemos escuchar como la banda evoluciona y progresa en su sonido día tras día.
    Hoy en TabsFácil.es te quiero dejar un pequeño fragmento de la tablatura para guitarra de "Malefic Circus".
Tabs Fácil de... Malefic Circus. Zenobia.
1.-----------------------| 2.-----------------------| 3.-----------------------| 4.-----------------------| 5.-5-6-5--5-6-3-5--5-6-5-| 6.-----------------------|
1.-----------------------| 2.-----------------------| 3.-----------------------| 4.-----------------------| 5.-8-6--3-5--5-6-5--5-6-3 6.-----------------------|
1.------| 2.------| 3.------| 4.----5-| 5.-5--3-| 6.------|...
(3:42)
1.-5------5--------------| 2.---6------8-5---5----…