Tablatura para guitarra de ... Juego de Tronos. (Cover). Emily Rose Hastings.

Tablatura para guitarra de ... Juego de Tronos. (Cover). Emily Rose Hastings.

  Indispensable en tu repertorio, aunque no sea un tema compuesto para guitarra y es que son muchos los que se han lanzado ha crear su propia versión o cover del tema, banda sonora original de una de las series más vistas de la historia, "Juego de Tronos", cómo es el caso de Emily Rose Hastings, cantante, compositora y guitarrista originaria de los Estados Unidos, y admiradora de guitarristas como Matthias Jabs,  Zakk Wylde, así como de Slash y Eric Johnson, y por supuesto, Eddie Van Halen y de la que podemos disfrutar de sus interpretaciones y composiciones por la red y sus diferentes redes sociales.
  Un saludo.








Tablatura para guitarra de ... Juego de Tronos. (Cover). Emily Rose Hastings.

1.-------------------------|
2.-8-----6-8-----6-8-----6-8
3.---5-8-----5-8-----5-8---|
4.-------------------------|
5.-------------------------|
6.-------------------------|

1.-------------------------|
2.---5-6-8---5-6-8---5-6-8-|
3.-5-------5-------5-------5
4.-------------------------|
5.-------------------------|
6.-------------------------|

1.-------------------------|
2.-5-6-8-------------------|
3.-------5-----------------|
4.-----------5-----3-5-----3
5.-------------3-6-----3-6-|
6.-------------------------|

1.-------------------------|
2.-------------------------|
3.-------------------------|
4.---3-------3-----------5-|
5.-5-----6-5-----6-5-3-----3
6.-----6-------6-----------|

1.-------------------------|
2.-------------------------|
3.-------------------------|
4.---3-5-----3---3-------3-|
5.-6-----3-6---5-----6-5---|
6.-----------------6-------6

1.--------15--------13-15--|
2.-----------13-16--------13
3.-------------------------|
4.-------------------------|
5.-6-5-3-------------------|
6.-------------------------|

1.-------------------------|
2.-16-18-15--18----15-16-15
3.--------------15---------|
4.-------------------------|
5.-------------------------|
6.-------------------------|

1.-------------------------|
2.--------11(13)--11--9--8-|
3.-15-17-------------------|
4.-------------------------|
5.-------------------------|
6.-------------------------|

1.-------------|
2.-4-----------|
3.----8--7--5--|
4.-------------|
5.-------------|
6.-------------|

1.-------------------------|
2.-11(13)--11--9--8--4-----|
3.----------------------8--|
4.-------------------------|
5.-------------------------|
6.-------------------------|

1.----------|
2.----------|
3.-10p8p7--5
4.----------|
5.----------|
6.----------|

1.---------------------|
2.---------------------|
3.-------3-5-------3-5-|
4.-5-6-8-----5-6-8-----|
5.---------------------|
6.---------------------|




No hay comentarios:

Publicar un comentario