Tablatura fácil de... El olvidado de dios. Saratoga.

Tablatura fácil de... El olvidado de dios. Saratoga.

   El 16 de Noviembre es la fecha elegida por cantidad de grupos internacionales y nacionales para lanzar sus nuevos trabajos al mercado. Entre los nacionales se encuentra nada más y nada menos que Saratoga, que lanza "Aeternus" del que la banda ya ha publicado su single adelanto en forma de videoclip.
  El tema lleva por título "El olvidado de dios" y aquí puedes disfrutar de un momento en tablatura del tema.
  Un saludo.
 Tablaturas fáciles para guitarra.









Tablatura fácil de... El olvidado de dios. Saratoga.

 Re#
1.---------------------------|
2.-/7-6-7-6---6-7--6-7-9-6---|
3.----------8--------------6-|
4.---------------------------|
5.---------------------------|
6.---------------------------|


La#
1.---------------------------|
2.-/7-6-7-6---6-7--6-7-9-6---|
3.----------8--------------6-|
4.---------------------------|
5.---------------------------|
6.---------------------------|


Si
1.---------------------------|
2.-/7-6-7-6---6-7--6-7-9-6---|
3.----------8--------------6-|
4.---------------------------|
5.---------------------------|
6.---------------------------|


Do#                          Re#
1.-----------------------------|
2.-/7-6-7-6---6-7--6-7-9-6-----|
3.----------8--------------6--8
4.-----------------------------|
5.-----------------------------|
6.-----------------------------|


(1:35)

1.--------------------------|
2.--------------------------|
3.--------------------------|
4.-1-1-1--1-1-1-1-4-2-1-1-1-|
5.--------------------------|
6.--------------------------|

1.--------------------------|
2.--------------------------|
3.---------6----------------|
4.-1-1-1-1-4--1-1-1--1-1-1-1
5.--------------------------|
6.--------------------------|

1.-----------------------|
2.-----------------------|
3.--------------------4--|
4.-4-2-1-1-1--1-1-1-1-2--|
5.-----------------------|
6.-----------------------|


(2:35)

1.----------------------------|
2.----------------------------|
3.-20-15-15-18-15-15-16-13-15-|
4.----------------------------|
5.----------------------------|
6.----------------------------|

1.-----------------------------|
2.-------------------16-14-12--|
3.-11-11-15-11-13-10----------15
4.-----------------------------|
5.-----------------------------|
6.-----------------------------|

1.----------------------------|
2.----------------------------|
3.-20-15-15-18-15-15-16-13-15-|
4.----------------------------|
5.----------------------------|
6.----------------------------|

1.-----------------------------|
2.-------------------16-18-19--|
3.-11-11-15-11-13-10-----------|
4.-----------------------------|
5.-----------------------------|
6.-----------------------------|

1.--------|
2.-19(21)-|
3.--------|
4.--------|
5.--------|
6.--------|...



No hay comentarios:

Publicar un comentario