Tablatura fácil de... 13 rosas. Medina Azahara.

Tablatura fácil de... 13 rosas. Medina Azahara.

  "13 rosas" es el título del disco numero 22 de la banda cordobesa Medina Azahara, que veía la luz en el pasado mes de Octubre, aunque fue en Septiembre cuando podíamos escuchar el adelanto en forma de single que llevaba el mismo título que el álbum. 
 Dedicado a las trece jóvenes fusiladas por el régimen franquista en Madrid el 5 de agosto de 1939, poco después de finalizar la guerra civil española:

 "No se trata de reflejar o unirnos al momento feminista que estamos viviendo, es un homenaje a esas mujeres"... 
... "la idea surgió de una conversación, es una historia que nos conmueve y en ningún momento pretendemos que tenga connotaciones políticas"... 

 Comentaba Manolo Martínez, cuando le preguntaban en los medios sobre su nuevo disco y la temática. 

  También puedes pasar un buen rato tocando la guitarra con un momento en tablatura del tema.
  Un saludo.
 Tablaturas fáciles para guitarra.







Tablatura fácil de... 13 rosas. Medina Azahara.

(0:53)

1.---------------------------|
2.-17-15-17--------18-17-15-13
3.----------12-14------------|
4.---------------------------|
5.---------------------------|
6.---------------------------|

1.---------------------------|
2.-15-------17-15-13-12-13---|
3.----10-12----------------9-|
4.---------------------------|
5.---------------------------|
6.---------------------------|

1.------------------------12-|
2.----12-10-9----9-10-12----13
3.-10---------11-------------|
4.---------------------------|
5.---------------------------|
6.---------------------------|


(2:58)

1.----12-10-12----12-10-12---|
2.-10----------13----------10
3.---------------------------|
4.---------------------------|
5.---------------------------|
6.---------------------------|

1.-12-10-12----13-12-12----13
2.----------13----------15---|
3.---------------------------|
4.---------------------------|
5.---------------------------|
6.---------------------------|

1.-12-13----13-12-13----13-12
2.-------12----------15------|
3.---------------------------|
4.---------------------------|
5.---------------------------|
6.---------------------------|

1.-13------------------------|
2.----12--12-10-12----12-10-12
3.-----------------12--------|
4.---------------------------|
5.---------------------------|
6.---------------------------|

1.---------------------------|
2.----12-10-12----12-10-12---|
3.-10----------12----------10
4.---------------------------|
5.---------------------------|
6.---------------------------|

1.-12-10-12----12-10-12------|
2.----------13----------10--12
3.---------------------------|
4.---------------------------|
5.---------------------------|
6.---------------------------|

1.---------|
2.--13--10-|
3.---------|
4.---------|
5.---------|
6.---------|...





No hay comentarios:

Publicar un comentario