Tablatura fácil de... Our most desperate hour. Nita Strauss.

Tablatura fácil de... Our most desperate hour. Nita Strauss.

  Nita Strauss está a punto de publicar su primer álbum solista. Un intenso proyecto de la guitarrista, autofinanciado a través de un crowdfunding que verá la luz el próximo 16 de Noviembre. "Controlled Chaos" es el nombre de este trabajo, de puro virtuosismo instrumental: 
 “Será un álbum instrumental de metal, pero he estado haciendo algunos experimentos con diferentes estilos de música, así que creo que va a ser un resultado interesante”.

 La guitarrista que,fue la primera artista femenina en firmar con Ibanez en 60 años de historia, contaba sobre el disco: 
 “Va de lo brillante y divertido a lo agresivo y oscuro, de lo pacífico a lo caótico”...

  Hace ya tiempo que adelantaba tema para presentar el disco, pero es ahora, después de mucho tiempo, cuando por fin podemos escuchar el adelanto oficial "Our most desperate hour" del que os dejo un momento en tablatura.
  Un saludo.
  Tablaturas fáciles para guitarra.






Tablatura de... Our most desperate hour. Nita Strauss.

1.---------------------------|
2.---------------------------|
3.-----10-10-10-----7-7-7----|
4.-0-0----------0-0-------0-0
5.---------------------------|
6.---------------------------|

1.---------------------------|
2.---------------------------|
3.-9-9-9-----10-----12-----12
4.-------0-0----0-0----0-0---|
5.---------------------------|
6.---------------------------|

1.---------------------------|
2.---------------------------|
3.-12-12-----9-9-9-----10-10-|
4.-------0-0-------0-0-------|
5.---------------------------|
6.---------------------------|

1.--------------|
2.--------------|
3.-10-----9-9-9-|
4.----0-0-------|
5.--------------|
6.--------------|

1.---------------------------|
2.---------------------------|
3.-----10-10-10-----7-7-7----|
4.-0-0----------0-0-------0-0
5.---------------------------|
6.---------------------------|

1.---------------------------|
2.---------------------------|
3.-9-9-9-----10-----12-----12
4.-------0-0----0-0----0-0---|
5.---------------------------|
6.---------------------------|

1.---------------------------|
2.---------------------------|
3.-12-12-----9-9-9-----10-10-|
4.-------0-0-------0-0-------|
5.---------------------------|
6.---------------------------|

1.---------------------------|
2.---------------------------|
3.-10-----9-9-9-----7-7-7----|
4.----0-0-------0-0-------0-0
5.---------------------------|
6.---------------------------|

1.---------------------|
2.---------------------|
3.-7-7-7-7-7-6-6-6-6-6-|
4.---------------------|
5.---------------------|
6.---------------------|...

(0:47)

1.--------------|
2.--------5-6-8-|
3.----5-7-------|
4.-/8-----------|
5.--------------|
6.--------------|

(1:14)

1.-------------------------|
2.-------------------------|
3.-10/9-7------10-9-9h10p9-|
4.--------7-8--------------|
5.-------------------------|
6.-------------------------|

1.------------------------|
2.-------13-----------8---|
3.-12/14----12-----10---9-|
4.--------------12--------|
5.------------------------|
6.------------------------|

1.-------------------------|
2.-------------------------|
3.-10p9h10p9-------/10-9-7-|
4.-----------10------------|
5.--------------12---------|
6.-------------------------|

1.-------------------------|
2.-------------------------|
3.------10-9--9h10p9--12/14
4.-7-8---------------------|
5.-------------------------|
6.-------------------------|

1.-----------------------|
2.-13--------------------|
3.----12--14----12-------|
4.-----------15----14-15-|
5.-----------------------|
6.-----------------------|

1.-------------------|
2.-------------------|
3.-------------------|
4.-14h15p14p12----12-|
5.-------------15----|
6.-------------------|...

No hay comentarios:

Publicar un comentario