Tablatura fácil de... El padrino (B.S.O.) Slash.

Tablatura fácil de... El padrino (B.S.O.) Slash.
  

  Mientras los Guns and Roses siguen reeditando discos y dando multitudinarios conciertos y, a pesar de los múltiples rumores y declaraciones de las posibilidades de un disco nuevo, Slash continúa con su carrera en solitario que, empezara hace ya unos cuantos años.
  Un tema mítico en sus conciertos es el cover/adaptación del tema principal de la película "El padrino" del que hoy os quiero dejar un momento en tablatura para que paséis un buen rato con la guitarra.
  Un saludo.
  Tablaturas fáciles para guitarra.










Tablatura fácil de... El padrino (B.S.O.) Slash.

1.-----------------------------|
2.--------17-16----17----16----|
3.-----18-------18----18----18-|
4.-/18-------------------------|
5.-----------------------------|
6.-----------------------------|


1.-----------------------------|
2.--------------17-16----17----|
3.-----------18-------18----18-|
4.-19-18--18-------------------|
5.-----------------------------|
6.-----------------------------|


1.-----------------------------|
2.-16------------------------14
3.----18------------------14---|
4.-------17(18)-17-16--16------|
5.-----------------------------|
6.-----------------------------|


1.-----------------------------|
2.-15(16)(15)-------13-13(14)--|
3.---------------14------------|
4.------------16--------------18
5.-----------------------------|
6.-----------------------------|


1.-----------------------------|
2.-----------------------------|
3.------------(16)15--13-13(14)
4.-18(19)(18)------------------|
5.-----------------------------|
6.-----------------------------|


1.-----------------------------|
2.-------------------------14-14
3.-(13)--11h13p11p9------------|
4.------------------10-11------|
5.-----------------------------|
6.-----------------------------|


1.-----------------------------|
2.-13-12--16-------------------|
3.-----------16-14-13h14p13h14
4.-----------------------------|
5.-----------------------------|
6.-----------------------------|


1.-----------------------------|
2.-----------------------------|
3.-p13--12-12(13)-12-11--(14)13
4.-----------------------------|
5.-----------------------------|
6.-----------------------------|


1.-----------------------------|
2.-----------------------------|
3.-13-11-13-13(14)(13)(14)(13)-|
4.-----------------------------|
5.-----------------------------|
6.-----------------------------|

No hay comentarios:

Publicar un comentario