Tablatura fácil de... Bohemian Rhapsody. Queen.


Tablatura fácil de... Bohemian Rhapsody. Queen.







  Tema imprescindible en la historia del rock que vuelve a estar más de moda que nunca al ser el título que se ha elegido para la película que pronto se estrenará en España sobre la banda Queen y su cantante Freddie Mercury.

  "Ambientado en los años 70, la película pretende mostrar de forma cronológica cómo se formó esta banda, los años previos a la fama y los inicios de Freddie Mercury. Además, también se mostrará el Live Aid de 1985, un concierto que dieron en el estadio de Wembley con el fin de donar lo recaudado a causas benéficas y donde además también colaboraron otras grandes estrellas del mundo de la música de ese momento..."
  
  Puede que no vayas a verla pero si puedes disfrutar de la tablatura del solo de una de las canciones de Queen, uno de los grandes del rock.
  Un saludo.
 Tablaturas fáciles para guitarra.







Tablatura de... Bohemian Rhapsody. Queen.

1.---------------------------|
2.---------------------------|
3.--------------------15--12-|
4.-------15(17)-15h13--------|
5.-11/13---------------------|
6.---------------------------|

1.---------------------------|
2.---------------------------|
3.-15(17)--17--19-20-17--19-20
4.---------------------------|
5.---------------------------|
6.---------------------------|

1.--------15-16-18-20-20-18--|
2.-18--18-------------------21
3.---------------------------|
4.---------------------------|
5.---------------------------|
6.---------------------------|

1.---------------------------|
2.-20-21--20h21p20-18-20-18--|
3.--------------------------20
4.---------------------------|
5.---------------------------|
6.---------------------------|

1.---------------------------|
2.---------------------------|
3.-19-19h20p19-17-19-17-----15
4.----------------------20---|
5.---------------------------|
6.---------------------------|

1.-------------15-16-18------|
2.----15-16-18---------------|
3.-17--------------------15-17
4.---------------------------|
5.---------------------------|
6.---------------------------|

1.----------15-16-18-20------|
2.-15-16-18-------------15-16
3.---------------------------|
4.---------------------------|
5.---------------------------|
6.---------------------------|

1.---------------------------|
2.-13--15-16-13--15-16-18----|
3.------------------------10-|
4.---------------------------|
5.---------------------------|
6.---------------------------|


1.-------13--------------|
2.-------------14-14-14/-|
3.-12-13----13-----------|
4.-----------------------|
5.-----------------------|
6.-----------------------|...

No hay comentarios:

Publicar un comentario