.

banners

Tabs fácil de... Cherry Blossoms. Joe Satriani.



Tabs fácil de... Cherry Blossoms. Joe Satriani.
    Ya podemos disfrutar del nuevo álbum del guitarrista, rey de la melodía, Joe Satriani. "What happens next" lleva por título y representa el disco número 16 en su carrera.

  En Tablatura fáciles ya habíamos publicado algunos momentos en tablatura de sus temas adelanto y hoy lo hacemos de uno de los temas del disco que más nos ha cautivado en su primera escucha, "Cherry Blossoms." 
  Un saludo.
  TabsFácil.


Cherry Blossoms. Joe Satriani.

1.-----------------------------|
2.-----------------------------|
3.-----------------------------|
4.-/6-6-6--6-6-6-7--4---/6-6-6-|
5.-----------------------------|
6.-----------------------------|

1.-----------------------------|
2.-----------------------------|
3.-----------------------------|
4.-4--2--1-----/6-6-6--6-6-6-7-|
5.---------/4------------------|
6.-----------------------------|

1.-----------------------------|
2.-------------------------7/9-|
3.-----------------------------|
4.-4---------------------------|
5.----6h7h6--4--2--2h4-4-------|
6.-----------------------------|

1.-------------9---------------|
2.-9-9---9-9-9---7--7h9-9-9--9-|
3.-----------------------------|
4.-----------------------------|
5.-----------------------------|
6.-----------------------------|

1.-----------------------------|
2.-9-9-7--5--4--2---7/9-9-9--9-|
3.-----------------------------|
4.-----------------------------|
5.-----------------------------|
6.-----------------------------|

1.-----7/9---------------------|
2.-9-9-----7-------------------|
3.------------8h9h8h9h8h9h8--6-|
4.-----------------------------|
5.-----------------------------|
6.-----------------------------|

1.----------------------------16
2.-------------------------17--|
3.-4--4h6----------13---18-----|
4.--------------14-------------|
5.-----------16----------------|
6.-----------------------------|

1.-21-16-----------------------|
2.-------17--------------------|
3.----------18---------------14
4.--------------------11--16---|
5.-----------------12----------|
6.--------------14-------------|

1.-----------------------------|
2.----19-14--------------------|
3.-18-------14-----------------|
4.-------------16---------13---|
5.---------------------14------|
6.------------------16---------|

1.-----------------------------|
2.-----------21-16--------17-14
3.----16-20--------16----------|
4.-18-----------------18-------|
5.-----------------------------|
6.-----------------------------|

1.------------------------------|
2.------------------------------|
3.-16-13------------------------|
4.-------16-14------------------|
5.-------------16-14------------|
6.-------------------16-14--12--9



No hay comentarios:

Publicar un comentario