.

banners

Tabs fácil de... Follow the sign. Helloween.



   Del segundo álbum de la banda germana, y del primero que les catapultó a la fama internacional, lanzado allá por el 87, "The keeper of the seven keys" hemos extraído hoy en Tablaturas fáciles "Follow the sign." Un tema con el que cerraban el disco y con el que, junto al resto del álbum comenzaban a verse los atisbos de lo que sería a la postre, el nacimiento del "power metal."
  Os dejamos a continuación un pequeño fragmento del tema, a modo de momento en tablatura para que lo disfrutéis.
  Un saludo.
  TabsFácil.




Follow the sign. Helloween.

1.-----------------------------|
2.-----------------------------|
3.-16h17h16h14h16--16h17h16h14
4.-----------------------------|
5.-----------------------------|
6.-----------------------------|

1.-----------------------------|
2.-17--16h17h16----16----------|
3.--------------17----17-16h17h
4.-----------------------------|
5.-----------------------------|
6.-----------------------------|

1.-----------------------------|
2.-----------------------------|
3.-h16h14h16h17--16h14h16h17h16
4.-----------------------------|
5.-----------------------------|
6.-----------------------------|

1.-----------------------------|
2.-----7-8-/10-8-7-------------|
3.-/9--------------------------|
4.------------------/9-/10-11(12)
5.-----------------------------|
6.-----------------------------|

1.-----------------------------|
2.-------------------7-8-10-8--|
3.-----------------9-----------|
4.-9-5-4-2-0-2----------------9
5.-----------------------------|
6.-------------0---------------|

1.-7/8-8(10)-7-5-3-2-0---------|
2.---------------------3-5-----7
3.---------------------------9-|
4.-----------------------------|
5.-----------------------------|
6.-----------------------------|

1.-----------------------------|
2.-7h8-7--7h8h7-5--------7-8-7-|
3.----------------7/9--9-------|
4.-----------------------------|
5.-----------------------------|
6.-----------------------------|

1.--------------7-7-7-7-7--7-8-|
2.-7h8h7-5---------------------|
3.---------7/9-----------------|
4.-----------------------------|
5.-----------------------------|
6.-----------------------------|

1.-7-8--7-7-7-8-8-8-7-7-7-5----|
2.--------------------------10-|
3.-----------------------------|
4.-----------------------------|
5.-----------------------------|
6.-----------------------------|

1.-----------7-8-7-----7h8-----|
2.-10-10--10-------10------10--|
3.-----------------------------|
4.-----------------------------|
5.-----------------------------|
6.-----------------------------|

1.-7h8----7h8----|
2.-----10-----10-|
3.---------------|
4.---------------|
5.---------------|
6.---------------|...


1.-------------------|
2.-/8-7--------------|
3.------9-7--9(11)-9-|
4.-------------------|
5.-------------------|
6.-------------------|



No hay comentarios:

Publicar un comentario