.

banners

Tablatura fácil de... Crisálida. Avalanch.



    Alberto Rionda regresaba al panorama musical reuniendo nueva banda para dar forma a un nuevo proyecto con Avalanch y regrabando el que posiblemente es el mejor disco de la banda. 
  Junto a la grabación del disco, nos presentaba unos temas inéditos cómo éste "Crisálida" del que hoy os queremos dejar en tablaturas fáciles un momento en tablatura para que disfrutéis y practiques tocando la guitarra.
   Hoy en Tabs Fáciles, de nuevo Avalanch.
  Un saludo.
  TabsFácil.




Crisálida. Avalanch.

(0:30)

1.-------------------------------|
2.------------------/11-9h11h9-8-|
3.-----8-12-10-8-10--------------|
4.-/10---------------------------|
5.-------------------------------|
6.-------------------------------|

1.-------------------------------|
2.-------------------------------|
3.-/8-10--/8-7------------------8
4.-------------10-8-10-8-8--/10--|
5.-------------------------------|
6.-------------------------------|

1.-------------------------------|
2.-------/11-9h8h9-8-------------|
3.-12-10-------------10-8----10-12
4.------------------------10-----|
5.-------------------------------|
6.-------------------------------|

1.-------------|
2.-------------|
3.-13-13-15-12-|
4.-------------|
5.-------------|
6.-------------|...

(2:59)

1.-------------------------------|
2.-13--13-13-----------14-13--13-|
3.-----------15-15--15-----------|
4.-------------------------------|
5.-------------------------------|
6.-------------------------------|

1.-------------------------------|
2.-13-13-11----11-13-13----------|
3.----------13----------12-13-12h
4.-------------------------------|
5.-------------------------------|
6.-------------------------------|

1.-----------------------------16
2.--------------------13-13-13---|
3.-h13h12----12-13-13------------|
4.--------15---------------------|
5.-------------------------------|
6.-------------------------------|

1.-16-16--15-15-15----16-15-16--18
2.-----------------13------------|
3.-------------------------------|
4.-------------------------------|
5.-------------------------------|
6.-------------------------------|

1.-16-15-----|
2.-------18--|
3.-----------|
4.-----------|
5.-----------|
6.-----------|...



No hay comentarios:

Publicar un comentario