.

banners

Tabs fácil de... Thunder high on the mountain. Joe Satriani.




  
  Como ya anunciáramos en éstas páginas, Joe Satriani ya tiene nuevo disco listo para salir al mercado. "What happens next" llevará por título y podremos disfrutar de él al completo el próximo 12 de Enero.  
  Mientras tanto el guitarrista nos va adelantando algún que otro tema, ya lo hizo con "Energy" y ahora le toca a "Thunder high on the mountain" del que cómo siempre, os queremos dejar unos momentos en tablatura para que disfrutéis de éste genio de la guitarra.
  Un saludo.
  TabsFácil.



Thunder high on the mountain. Joe Satriani.


  (0:16)

1.-------------------------------|
2.-------------------------------|
3.-6p0--8p0-8p0-8p0-8p0-8p0--6p0-|
4.-------------------------------|
5.-------------------------------|
6.-------------------------------|

1.-------------------------------|
2.-------------------------------|
3.-8p0-10p0-8p0-6p0-8p0-6p0------|
4.--------------------------8p0--|
5.-------------------------------|
6.-------------------------------|

1.-------------------------------|
2.-------------------------------|
3.-------------------------------|
4.-6p0-4p0-6p0-8p0-8p0-8p0-8p0-8p0
5.-------------------------------|
6.-------------------------------|

1.-------------------------------|
2.-------------------------------|
3.-------------------------------|
4.-6p0-4p0-6p0-8p0-8p0-8p0-8p0-8p0
5.-------------------------------|
6.----------------------------|...

(0:31)

1.-------------------------------|
2.-------------------------------|
3.-------------------------------|
4.-9p0-9p0-8-6-6p0-6p0-6p0-8p0-9p0
5.-------------------------------|
6.-------------------------------|

1.-----------------|
2.-----------------|
3.-----------------|
4.-9p0-8-6-6p0-6p0-|
5.-----------------|
6.-----------------|...

(1:00)

1.--------------------|
2.--------------------|
3.--------------------|
4.-6-/8--8-8-8--------|
5.-4-/6--6-6-6--------|
6.--------------6-2-4-...


(1:38)

1.-------------------------------|
2.-----------------7h9-/11-------|
3.----------6/8--8---------13/11-|
4.----4h6/8----------------------|
5.-/6----------------------------|
6.-------------------------------|

1.-------------------------------|
2.-------------------------------|
3.-11h13--11h13--11/10--10-------|
4.-------------------------13--11
5.-------------------------------|
6.-------------------------------|

1.-------------------------------|
2.-------------------------------|
3.----10-11----------------------|
4.-13-------13h11h13--15h13h11h13
5.-------------------------------|
6.-------------------------------|

1.------------------|
2.------------------|
3.-6-/8-6-----------|
4.---------9-8-9--8-|
5.------------------|
6.------------------|...





No hay comentarios:

Publicar un comentario