.

banners

Tabs fácil de... Orion. Metallica.






  No podíamos pasar por encima de la noticia de la banda, mientras continúan con la exitosa gira mundial, Metallica anuncian la reedición de su disco "Master of Puppets" tercer disco de la banda del que pronto hará 31 años, nada más y nada menos.

  Por eso, y deseando tener en nuestras manos el disco con la cantidad de información de la banda, entrevistas, temas en vivo, inéditos, fotos, con los que añorar aquellos maravillosos años, pues para la ocasión, no sólo reeditarán el disco, sino que lo presentarán en un pack, con fotos, demos, videos y entrevistas, toda una edición para coleccionistas y amantes de la banda.


  Que te parece, mientras esperas su salida, disfrutar, si no lo has hecho ya, con un momento en tablatura de uno de los temas más emblemáticos de la banda.
  Hoy "Orion" en tablaturas fáciles.

  Un saludo.
  TabsFácil.



Orion. Metallica.


(3:12)

1.------------------------------|
2.------------------------------|
3.------------------------------|
4.-4h5h4h2--4--4h5h4h2--4h5h4h2-|
5.------------------------------|
6.------------------------------|

1.------------------------------|
2.------------------------------|
3.------------------------------|
4.--4--4h5h4h2--5-5--4-0--5-5-4-4
5.------------------------------|
6.------------------------------|

1.------------------------------|
2.------------------------------|
3.------------------------------|
4.-4h5h4h2--4--4h5h4h2--4h5h4h2-|
5.------------------------------|
6.------------------------------|

1.------------------------------|
2.------------------------------|
3.------------------------------|
4.--4--4h5h4h2--5-5--4-0--5-5-4-4
5.------------------------------|
6.------------------------------|

1.------------------------------|
2.------------------------------|
3.---------------4h7--7h9--9-9--9
4.------5h7--7h9----------------|
5.-7h10-------------------------|
6.------------------------------|

1.------------------------------|
2.-8--10(12)-10-8-7-7(8)-7------|
3.-------------------------7----|
4.----------------------------17
5.------------------------------|
6.------------------------------|

1.------------------------------|
2.--------------------------15(17)
3.-16-14(16)--14(16)-14--16-----|
4.------------------------------|
5.------------------------------|
6.------------------------------|

1.---------------------------12-|
2.-17-17-15(17)-17-17-15(17)----|
3.------------------------------|
4.------------------------------|
5.------------------------------|
6.------------------------------|

1.-15-14-12--15-14-12--15h14h12-|
2.------------------------------|
3.------------------------------|
4.------------------------------|
5.------------------------------|
6.---------------------------|...



No hay comentarios:

Publicar un comentario