.

banners

Tabs fácil de... Master of puppets. Metallica.





  Mientras continúan con la exitosa gira mundial, Metallica anuncian la reedición de su disco "Master of Puppets" tercer disco de la banda del que pronto hará 31 años, nada más y nada menos, de su salida.
  Para la ocasión, no sólo reeditarán el disco, sino que lo presentarán en un pack, con fotos, demos, videos y entrevistas, toda una edición para coleccionistas y amantes de la banda.
  Que te parece, mientras esperas su salida, aprender a tocar, si no lo has hecho ya, uno de los riffs más emblemáticos de la banda.
  Un saludo.
  Tabs Fácil.



Master of puppets. Metallica.

1.------------------------------|
2.------------------------------|
3.------------------------------|
4.----7--6--5-------------------|
5.-2--5--4--3------7------6-----5
6.-0-----------0-0----0-0---0-0-|

1.------------------------------|
2.------------------------------|
3.------------------------------|
4.-7--6--5----------------------|
5.-5--4--3----------------------|
6.----------0-0-7-0-0-6-0-0-5-0-4

1.----------|
2.----------|
3.----------|
4.----------|
5.----------|
6.-0-3-0-2--|...



No hay comentarios:

Publicar un comentario