.

banners

Tabs fácil de... La soga del muerto. (Ayahuasca). Mägo de Oz.

   "Gaia III:Atlantia" así se llamaba el décimo álbum de estudio de la banda Mägo de Oz y último de la trilogía "Gaia". Un álbum que salía allá por el 2010 y que nos dejaba, como viene siendo habitual en la banda, muy buenos temas.
  Hoy queríamos dejar unos momentos en tablatura de "La soga del muerto.(Ayahuasca)" un tema "diferente" pero con toda la esencia de los Mägo.
  Un saludo.
  TabsFácil.

La soga del muerto. (Ayahuasca). Mägo de Oz.


1-------------------------------------------------------------
2-12----------------------------12-13-15-13-12----------------
3-------------------------16-14----------------14-12-11-12-14-
4----14-12-14-16-14-12-14-------------------------------------
5-------------------------------------------------------------
6-------------------------------------------------------------

1-----------
2---12------     Dos veces.
3------14---
4-----------
5-----------
6-----------

1---------------------------------------------------------------
2---12-13-15-----------10-12-13----------8-10-12----------------
3------------14-12-14-----------12-11-12---------11-9-11-9-11-12
4---------------------------------------------------------------
5---------------------------------------------------------------
6---------------------------------------------------------------

1---------------------------------------------------------------
2---12------15-13-12----------------13-12-10---------------12-10
3-------14-----------14-12-11-12-11-----------12-11-9-11-9------
4---------------------------------------------------------------
5---------------------------------------------------------------
6---------------------------------------------------------------


1-------------------------------------------------------------
2---8------------------------12----15-13-12-----12---13-12----
3-----11-9-7-9-11-12-11-9-11----14-----------14----14------14-
4--------------------------------------------------------------
5--------------------------------------------------------------
6--------------------------------------------------------------

1---------------------------------------------------------------
2---------------------------------------------------------------
3---12-14-11-12-------------------------------------------------
4---------------------------------------------------------------
5---------------------------------------------------------------
6---------------------------------------------------------------

                           Ayahuasca con un...   
1---------------------------------------------------------------
2---------------------------------------------------------------
3---7-------7-------7-------7-------7-------7---------------7---
4---5---7---5---7---5---7---5---7---5---7---5---5---9---7---5---
5-------5-------5-------5-------5-------5-------3---7---5-------
6---------------------------------------------------------------

1---------------------------------------------------------------
2---------------------------------------------------------------
3-------4---------------7-------7----7--------7-------7---------
4---7---2---7---5---7---5---7---5----5----7---5---7---5----5---9
5---5-------5---3---5-------5-------------5-------5--------3---7
6---------------------------------------------------------------




1------------------------------------------
2------------------------------------------
3-------7---6---4---2-----------7-------7--
4---7---5---4---2---0---5---7---5---7---5--
5---5-------------------3---5-------5------
6------------------------------------------

(banjo).
1---------------------------------------------------------------
2---------------------------------------------------------------
3---------------------------------------------------------------
4---5-7-9-5---4-5-7-4---2-4-5-2---4-5-7-4---5-7-9-5---4-5-7-4---
5---------------------------------------------------------------
6---------------------------------------------------------------

1---------------------------------------------------------------
2---------------------------------------------------------------
3---------------------------------------------------------------
4---2-4-5---5---------------------------------------------------
5---------5-----------------------------------------------------
6---------------------------------------------------------------

    Oigo voces...
1-----------------------------------------
2-----------------------------------------
3----7-------7-------7---------------7----
4----5---7---5---7---5---5---9---7---5----
5--------5-------5-------3---7---5--------
6-----------------------------------------

1---------------------------------------------------------------
2---------------------------------------------------------------
3-------4---------------7-------7----7--------7-------7---------
4---7---2---7---5---7---5---7---5----5----7---5---7---5----5---9
5---5-------5---3---5-------5-------------5-------5--------3---7
6---------------------------------------------------------------


1------------------------------------------
2------------------------------------------
3-------7---6---4---2-----------7-------7--
4---7---5---4---2---0---5---7---5---7---5--
5---5-------------------3---5-------5------
6------------------------------------------

(guitarra eléctrica).
1---------------------------------------------------------------
2--------------------------------15-13-12---12------------------
3-------4-5-7---11-11-9-7-9-11------------14---14-12-14-12-11-12
4---5-7---------------------------------------------------------
5---------------------------------------------------------------
6---------------------------------------------------------------

(Flauta.)
1---------------------------------------------------------------
2---12----------------------------12-13-15-13-12----------------
3---------------------------16-14----------------14-12-11-12-14-
4------14-12-14-16-14-12-14-------------------------------------
5---------------------------------------------------------------
6---------------------------------------------------------------

1-----------
2---12------     
3------14---
4-----------
5-----------
6-----------

1---------------------------------------------------------------
2---12-13-15-----------10-12-13----------8-10-12----------------
3------------14-12-14-----------12-11-12---------11-9-11-9-11-12
4---------------------------------------------------------------
5---------------------------------------------------------------
6---------------------------------------------------------------

1---------------------------------------------------------------
2---12------15-13-12----------------13-12-10---------------12-10
3-------14-----------14-12-11-12-11-----------12-11-9-11-9------
4---------------------------------------------------------------
5---------------------------------------------------------------
6---------------------------------------------------------------


1--------------------------------------------------------------
2---8------------------------12----15-13-12-----12---13-12-----
3-----11-9-7-9-11-12-11-9-11----14-----------14----14------14--
4---------------------------------------------------------------
5---------------------------------------------------------------
6---------------------------------------------------------------


1---------------------------------------------------------------
2---------------------------------------------------------------
3---12-14-11-12-------------------------------------------------
4---------------------------------------------------------------
5---------------------------------------------------------------
6---------------------------------------------------------------

(piano)
1---------------------------------------------------------------
2---3-5-6-3------------------------------------3---------------3
3-----------4-5-7-4--------------------4-5-7-4---5-4-5-7-5-4-5--
4-------------------6-7-8-6---7-9-10-7--------------------------
5---------------------------------------------------------------
6---------------------------------------------------------------

1---------------------------------------------------------------
2-----------------5--------3--------------5---------------------
3---5-4-5-7-5-4-5----5-4-5---5-4-5--5-4-5----5-4-5-4-5-6-7-8----
4---------------------------------------------------------------
5---------------------------------------------------------------
6---------------------------------------------------------------

(guitarra eléctrica)
1---------------------------------------------------------------
2---------------------------------------------------------------
3---------------------------------------------------------------
4---9-------9-9-7-5-4-5-------5-5-4-2-4-7-7-----------------7---
5---7---9---7-7-5-3-2-3---5---3-3-2-0-2-5-5---5-5-----------5---
6-------7-----------------3-------------------3-3---5-7-8-5-----



1---------------------------------------------------------------
2---------------------------------------------------------------
3---------------------------------------------------------------
4---12-10-9-7---------------------------------------------------
5---------------------------------------------------------------
6---------------------------------------------------------------

                          Ayahuasca...
1---------------------------------------------------------------
2---------------------------------------------------------------
3---7-------7-------7-------7-------7-------7---------------7---
4---5---7---5---7---5---7---5---7---5---7---5---5---9---7---5---
5-------5-------5-------5-------5-------5-------3---7---5-------
6---------------------------------------------------------------

1---------------------------------------------------------------
2---------------------------------------------------------------
3-------4---------------7-------7----7--------7-------7---------
4---7---2---7---5---7---5---7---5----5----7---5---7---5----5---9
5---5-------5---3---5-------5-------------5-------5--------3---7
6---------------------------------------------------------------




1------------------------------------------
2------------------------------------------
3-------7---6---4---2-----------7-------7--
4---7---5---4---2---0---5---7---5---7---5--
5---5-------------------3---5-------5------
6------------------------------------------


                                      ....Habitación 2 0 6...
1---------------------------------------------------------------
2---------------------------------------------------------------
3---7----9----11---12---14------------------4-2-0-4---4-2-0-4---
4---5----7----9----10---12---16-14-12-14-16---------------------
5---------------------------------------------------------------
6---------------------------------------------------------------

1---------------------------------------------------------------
2---------------------------------------------------------------
3---4-2-0-2-4-2-0-2-0----0--------------------------------------
4----------------------0----------------------------------------
5---------------------------------------------------------------
6---------------------------------------------------------------

No hay comentarios:

Publicar un comentario