.

banners

Tabs fácil de... Follow your heart. Scorpions.







   Recién salido a la calle, el nuevo álbum de los germanos Scorpions. Un álbum de baladas que contiene, además, dos temas inéditos. "Born to touch your Feelings" lleva por título.
   Hoy en Tablaturas fáciles os queremos dejar un momento en tablatura de una de las baladas de Scorpions, "Follow your heart" perteneciente a éste, su nuevo trabajo.
  Un saludo.
  TabsFácil.



Tabs fácil de... Follow your heart. Scorpions.

1.---5-6-------------|
2.-------6---------3-|
3.------------5-3----|
4.-5--------3--------|
5.-------6-----------|
6.-------------------|...

1.----------------13-10--------|
2.-(11)10-8-11-8--------13-11-10
3.-----------------------------|
4.-----------------------------|
5.-----------------------------|
6.-----------------------------|

1.---------------------|
2.--------(11)10-8--13-|
3.-12-10---------------|
4.---------------------|
5.---------------------|
6.---------------------|


(0:15)

1.---------------------13-10---|
2.-8-10-11--8--10h11-8-------13
3.-----------------------------|
4.-----------------------------|
5.-----------------------------|
6.-----------------------------|

1.-------------------|
2.-11-10-------------|
3.-------12-10-------|
4.-------------------|
5.---------------5-5-|
6.---------------3-3-|...






No hay comentarios:

Publicar un comentario