.

banners

Tabs fácil de ... The eagle flies alone. Arch Enemy.



   Tres años después Arch Enemy vuelve a sacar disco "Will to power". Un disco para consagrar dentro de la banda a su nueva vocalista, Alissa Whiteglutz y en el que empiezan aparecer las aportaciones del casi recién incorporado Jeff Loomis.
  Un disco cargado, como nos tiene acostumbrados la banda sueca, de riffs cañeros y grandes melodías y, es una de esas de las que os queremos dejar hoy en Tablaturas fáciles un momento en tablatura.
Nada mas y nada menos que del tema "The eagle flies alone" para que la disfrutéis y practiquéis con la guitarra.
  Un saludo.
  TabsFácil.





The eagle flies alone. Arch Enemy.


(0:45)

1.------------------------------|
2.------------------------------|
3.-------5/6\5-3-5-3h5h3/1---3--|
4.-3-5-6-------------------1---1
5.------------------------------|
6.------------------------------|

1.---------------------------|
2.---------------------------|
3.-3---3---3---3---3---3---3-|
4.---1---1---1---1---1---1---|
5.---------------------------|
6.---------------------------|

1.------------------------------|
2.------------------------------|
3.-------5/6\5-3-5-3h5h3/1---3--|
4.-3-5-6-------------------1---1
5.------------------------------|
6.------------------------------|

1.------------------------|
2.------------------------|
3.-3---3---3--0-0--1-0--0-|
4.---1---1----------------|
5.------------------------|
6.------------------------|...


(1:28)

1.------------------------8-6---|
2.----8-9-11-9-8------8-9-----9-8
3.-10------------10-9-----------|
4.------------------------------|
5.------------------------------|
6.------------------------------|

1.------------------------8---8-|
2.----8-9-11-9-8-9-8----6---6---|
3.-10----------------10---------|
4.------------------------------|
5.------------------------------|
6.------------------------------|

1.------------------------8-6---|
2.----8-9-11-9-8------8-9-----9-8
3.-10------------10-9-----------|
4.------------------------------|
5.------------------------------|
6.------------------------------|

1.------------------------------|
2.----8-9-11-9-8-9-8--8h9h8-----|
3.-10-----------------------10--|
4.------------------------------|
5.------------------------------|
6.------------------------------|

1.---8---8--|
2.-6---6----|
3.----------|
4.----------|
5.----------|
6.----------|...

No hay comentarios:

Publicar un comentario