.

banners

Tablatura fácil de... Runa llena. Mägo de Oz.
















   
  En el año 2007 lanzaban su noveno álbum de estudio los madrileños Mägo de Oz, "La ciudad de los árboles" un álbum también conceptual pero con el que intentaban, en propias palabras del grupo, alejarse de la complejidad de anteriores composiciones.

  Al octavo corte "Runa llena" pertenece una pequeña tablatura que hoy queremos compartir con vosotros.
  Un saludo.
  TabsFácil.



Runa llena. Mägo de Oz.

(flauta)

1.------8-7----8-7------------------------------------
2.-10-8-----10-----10----------------6-8-10-8-6-------
3.--------------------10-----/7-5-7-------------9-7-5-
4.-----------------------12---------------------------
5.----------------------------------------------------
6.----------------------------------------------------

1.-------------------------------
2.-------------------------------
3.-9-7-5-5-7-9-10-9-7-9-7-----7--
4.-------------------------10----
5.-------------------------------
6.-------------------------------

0:15 (gaita)

1.-----------------------------------------------8-7----
2.------10-8-6----6-------8----------10-8-6-----------10
3.-7-10---------9---9---7---7---7-10---------9-7--------
4.-----------------------------------------------------
5.-----------------------------------------------------
6.-----------------------------------------------------


1.-----------------------------------------------------
2.------10-8-6---6-------8---6-8-6-5-6-5---5-----------
3.-7-10--------9---9---7---7-------------7---7-5-7-----
4.-----------------------------------------------------
5.-----------------------------------------------------
6.-----------------------------------------------------

0:29 (flauta y gaita)

1.-----------------8-7--------------------------8-7---
2.-10---10-10-10-8-----8-6-10---10---10-10-10-8-----10
3.----------------------------7-----------------------
4.----------------------------------------------------
5.----------------------------------------------------
6.----------------------------------------------------


1.--------------------------8-7-----------------------
2.-8-6-10---10---10-10-10-8-----10-8-6-10---8-6---10--
3.----------------------------------------7-----7-----
4.----------------------------------------------------
5.----------------------------------------------------
6.----------------------------------------------------

                       0:41(guitarra acústica)

1.----------------------------------------------------
2.-6--------------------------------------------------
3.---7---9-7----7-------------------------------------
4.-----------10---------------------------------------
5.------------------------7-8-7-5-------------------7-
6.---------------------6----------8-3-3-5-6-5-3---6---

1.-----------------------------------------------------
2.-----------------------------------------------------
3.-----------------------------------------------------
4.-----------------------------------------------------
5.-8-7-5-10-------7-8-7-5-----------------1-0-1-3-1-3/5
6.----------8---6----------8-3-3-5-6-5-3---------------


0:56 (gaita)

1.-----------------------------------------------8-7---
2.------10-8-6----6-------8----------10-8-6-----------10
3.-7-10---------9---9---7---7---7-10---------9-7--------
4.-----------------------------------------------------
5.-----------------------------------------------------
6.-----------------------------------------------------


1.-----------------------------------------------------
2.------10-8-6---6-------8---6-8-6-5-6-5---5-----------
3.-7-10--------9---9---7---7-------------7---7-5-7-----
4.-----------------------------------------------------
5.-----------------------------------------------------
6.-----------------------------------------------------

1:15 (se toca con el siguiente acompañamiento

1.----------------------------
2.----------------------------
3.---------5-------5-7--------
4.-7-5-7-5-3---7-5-3-5-5-7----
5.-5-3-5-3-----5-3-----3-5----
6.----------------------------




1.-----------------------------------------------8-7---
2.------10-8-6----6-------8----------10-8-6-----------10
3.-7-10---------9---9---7---7---7-10---------9-7--------
4.-----------------------------------------------------
5.-----------------------------------------------------
6.-----------------------------------------------------


1.-----------------------------------------------------
2.------10-8-6---6-------8---6-8-6-5-6-5---5-----------
3.-7-10--------9---9---7---7-------------7---7-5-7-----
4.-----------------------------------------------------
5.-----------------------------------------------------
6.-----------------------------------------------------


1.-----------------------------------------------8-7----
2.------10-8-6----6-------8----------10-8-6-----------10
3.-7-10---------9---9---7---7---7-10---------9-7--------
4.------------------------------------------------------
5.-----------------------------------------------------
6.-----------------------------------------------------


1.-----------------------------------------------------
2.------10-8-6---6-------8---6-8-6-5-6-5---5-----------
3.-7-10--------9---9---7---7-------------7---7-5-7-----
4.-----------------------------------------------------
5.-----------------------------------------------------
6.-----------------------------------------------------


1:29

1.-----------------8-7--------------------------8-7---
2.-10---10-10-10-8-----8-6-10---10---10-10-10-8-----10
3.----------------------------7-----------------------
4.----------------------------------------------------
5.----------------------------------------------------
6.----------------------------------------------------


1.--------------------------8-7-----------------------
2.-8-6-10---10---10-10-10-8-----10-8-6-10---8-6---10--
3.----------------------------------------7-----7-----
4.----------------------------------------------------
5.----------------------------------------------------
6.----------------------------------------------------


1.-----------------------
2.-6---------------------
3.---7---9-7----7--------
4.-----------10----------
5.-----------------------
6.-----------------------

1:34(flauta, se toca con el siguiente acompañamiento:

1.----------------------------------------
2.----------------------------------------
3.----------------------------------------
4.------5-------------------5-------7---5-
5.-5----3---8---10------5---3---7---5---3-
6.-3--------6---8-------3-------5---------


1.---------------------------------------------------
2.---------------------------------------------------
3.----9-10-9-7---------------------9-10-9-7-12-------
4.-/8----------10-5-5-7-8-7-5---/8---------------/8--
5.---------------------------------------------------
6.---------------------------------------------------


1.--------------------------------------------------
2.--------------------------------------------------
3.-9-10-9-7-----------------------------------------
4.----------10-5-5-7-8-7-5---/8-7-8-10-8-10-12------
5.--------------------------------------------------
6.--------------------------------------------------

1:49

1.-----------------------------------------------8-7---
2.------10-8-6----6-------8----------10-8-6-----------10
3.-7-10---------9---9---7---7---7-10---------9-7--------
4.-----------------------------------------------------
5.-----------------------------------------------------
6.-----------------------------------------------------

1.----------------------------------------------------
2.------10-8-6---6-------8---6-8-6-5-6-5---5-----------
3.-7-10--------9---9---7---7-------------7---7-5-7-----
4.-----------------------------------------------------
5.-----------------------------------------------------
6.-----------------------------------------------------

1:56

1.-----------------------------------------------------
2.-----------------------------------------------------
3.-----------------------------------------------------
4.-0-0-0-5-0-0-7-0-0-8-0-0-10-12-10-8--------5--------3
5.-------------------------------------3-3-3---3-1-1-1-
6.-----------------------------------------------------





1.---------------------------------------------
2.---------------------------------------------
3.-----------------------------------------H-H-
4.---------2-3-2-------3---------5---------8-7-
5.-1-0-0-0-------1-1-1---1-3-3-3---3-0-0-------
6.---------------------------------------------


1.-----------------------------------------------------
2.-----------------------------------------------------
3.-----------------------------------------------------
4.-0-0-0-5-0-0-7-0-0-8-0-0-10-12-10-8--------5--------3
5.-------------------------------------3-3-3---3-1-1-1-
6.-----------------------------------------------------





1.-------------------------------------------------------
2.-------------------------------------------------------
3.-------------------------------------------------------
4.---------2-3-2-------3---------5-----------------------
5.-1-0-0-0-------1-1-1---1-3-3-3---3-0-0-0-1-0-0-0-0-3-0-
6.-------------------------------------------------------

                                 2:16(acústica)

1.-------------------------------------------------------
2.---------------------2---------------------------------
3.--------------0-2-3---------------7-10-9-7-------------
4.--------0-2-3------------------/8----------8-5-5-7-8-7-
5.-0-2-3-------------------------------------------------
6.-------------------------------------------------------

                         (acompañamiento acústica)

1.--------------------  |1.----------------------------
2.----------------8---  |2.-------------------------(H)
3.--------7-9-8-9---9-  |3.--------------------------5-
4.-5---/8-------------  |4.-----5-----------------5----
5.--------------------  |5.-8---3---5---------8---3----
6.--------------------  |6.-6-------3-5-3-5---6--------

2:22 (teclado)

1.-------------------8-----------------------------------
2.---6-8---6-8---6-8---8-------6-8---6-8---6-8-5-6-5-----
3.-7-----7-----7---------7---7-----7-----7-----------5---
4.-------------------------------------------------------
5.-------------------------------------------------------
6.-------------------------------------------------------



1.-------------------8----------------------------------
2.---6-8---6-8---6-8---8--------------------5-6-8-8-6-5-
3.-7-----7-----7---------7---7-9-10-10-9-7--------------
4.------------------------------------------------------
5.------------------------------------------------------
6.------------------------------------------------------


1.-3-5-6-6-5-3-5-6-8-8-6-5-10-
2.----------------------------
3.----------------------------
4.----------------------------
5.----------------------------
6.----------------------------

(acompañamiento teclado)

1.----------------------------------------
2.----------------------------------------
3.----------------------------------------
4.-----5---------------5---2---6---9---12-
5.-8---3---5---7---8---3---0---4---7---10-
6.-6-------3---5---6----------------------


2:32(se toca dos veces con el siguiente acompañamiento

1.----------------------------
2.----------------------------
3.---------5-------5-7--------
4.-7-5-7-5-3---7-5-3-5-5-7----
5.-5-3-5-3-----5-3-----3-5----
6.----------------------------


1.-----------------------------------------------8-7---
2.------10-8-6----6-------8----------10-8-6-----------10
3.-7-10---------9---9---7---7---7-10---------9-7--------
4.-----------------------------------------------------
5.-----------------------------------------------------
6.-----------------------------------------------------


1.----------------------------------------------------
2.------10-8-6---6-------8---6-8-6-5-6-5---5-----------
3.-7-10--------9---9---7---7-------------7---7-5-7-----
4.-----------------------------------------------------
5.-----------------------------------------------------
6.-----------------------------------------------------




2:45

1.-----------------------------------------------------
2.-----------------------------------------------------
3.-----------------------------------------------------
4.-0-0-0-5-0-0-7-0-0-8-0-0-10-12-10-8--------5--------3
5.-------------------------------------3-3-3---3-1-1-1-
6.-----------------------------------------------------



1.---------------------------------------------
2.-----------------------------------------H-H-
3.-----------------------------------------8-7-
4.---------2-3-2-------3---------5-------------
5.-1-0-0-0-------1-1-1---1-3-3-3---3-0-0-------
6.---------------------------------------------

1.-----------------------------------------------------
2.-----------------------------------------------------
3.-----------------------------------------------------
4.-0-0-0-5-0-0-7-0-0-8-0-0-10-12-10-8--------5--------3
5.-------------------------------------3-3-3---3-1-1-1-
6.-----------------------------------------------------

1.-------------------------------------------------------
2.-------------------------------------------------------
3.-------------------------------------------------------
4.---------2-3-2-------3---------5-----------------------
5.-1-0-0-0-------1-1-1---1-3-3-3---3-0-0-0-1-0-0-0-0-3-0-
6.-------------------------------------------------------




                                 (acústica)

1.-------------------------------------------------------
2.---------------------2---------------------------------
3.--------------0-2-3---------------7-10-9-7-------------
4.--------0-2-3------------------/8----------8-5-5-7-8-7-
5.-0-2-3-------------------------------------------------
6.-------------------------------------------------------

1.--------------------
2.----------------8---
3.--------7-9-8-9---9-
4.-5---/8-------------
5.--------------------
6.--------------------

 (teclado)

1.-------------------8-----------------------------------
2.---6-8---6-8---6-8---8-------6-8---6-8---6-8-5-6-5-----
3.-7-----7-----7---------7---7-----7-----7-----------5---
4.-------------------------------------------------------
5.-------------------------------------------------------
6.-------------------------------------------------------



1.-------------------8----------------------------------
2.---6-8---6-8---6-8---8--------------------5-6-8-8-6-5-
3.-7-----7-----7---------7---7-9-10-10-9-7--------------
4.------------------------------------------------------
5.------------------------------------------------------
6.------------------------------------------------------


1.-3-5-6-6-5-3-5-6-8-8-6-5-10-
2.----------------------------
3.----------------------------
4.----------------------------
5.----------------------------
6.----------------------------. . .

3:22(guitarra)


1.--------------------------------------------------------
2.--------------------------------------------------------
3.-------------7-----------5-7---------------------5-7----
4.-7---5---3---5---7---5---3-5---5-7---7---7---5-7-3-5-5-7
5.-5---3---5-------5---3---------3-5---5---5---3-5-----3-5
6.--------------------------------------------------------

1.-------------------------------------------------------
2.--------------5-----------5-----------5-----------5----
3.-------------------------------------------------------
4.------2-2-2-2---2-2-2-2-2---2-2-2-2-2---2-2-2-2-2------
5.-////--------------------------------------------------
6.-------------------------------------------------------

1.-------------------------------------------------------
2.-----------5-----------5-----------5-----------5-------
3.-------------------------------------------------------
4.-2-2-2-2-2---2-2-2-2-2---2-2-2-2-2---2-2-2-2-2---2-4-5-
5.-------------------------------------------------------
6.-------------------------------------------------------


1.-------
2.-------
3.-7-4-5-
4.-------
5.-------
6.-------

1.---------------------------------------------------
2.----------5-----------5-----------5-----------5----
3.---------------------------------------------------
4.--2-2-2-2---2-2-2-2-2---2-2-2-2-2---2-2-2-2-2------
5.---------------------------------------------------
6.---------------------------------------------------

1.---------------------------------------------------
2.-----------5-----------5-----------5-----------5---
3.---------------------------------------------------
4.-2-2-2-2-2---2-2-2-2-2---2-2-2-2-2---2-2-2-2-2-----
5.---------------------------------------------------
6.---------------------------------------------------

1.----------------------------------------------------
2.----------------------------------------------------
3.-9-7-5-------9--------------------------------------
4.-------9-7-9------------------7-9-------------------
5.-----------------10---9---7---5-7-------10---9---7-5
6.-----------------8----7---5--------7-0---8---7---5-3

1.--------------------------------------------------
2.--------------------------------------------------
3.------------------------------(H)--------------(H)
4.-------------------------------3---------3-5----0-
5.-2(muchas veces)-5-5-3-3-5-5-3---5-5-3-3------3---
6.-0(muchas veces)----------------------------------

1.------------------------------------
2.------------------------------------
3.---------------5-----------5-7------
4.-7-7-5-5-7-7-5-3---7-7-5-5-3-5-5-7--
5.-5-5-3-3-5-5-3-----5-5-3-3-----3-5--
6.------------------------------------


4:08(Piano final)

1.------------------------------------------------------
2.-9-10-9-----------------------------------------------
3.--------10-9-7-9-10-9----------------------------10---
4.----------------------10-9-7-7-6-7-9-7-9-10-9-10------
5.------------------------------------------------------
6.------------------------------------------------------


1.---------------------------------------------
2.-9-10-9--------------------------------------
3.--------10-9-7-9-10-9--------10---6-4-6-7----
4.----------------------10-9-7----7------------
5.---------------------------------------------
6.---------------------------------------------


No hay comentarios:

Publicar un comentario