.

banners

Tablatura fácil de... Battery. Metallica.




  No podíamos pasar por encima de la noticia de la banda, de  la próxima reedición de uno de sus discos más emblemáticos, sin publicar algunos momento en tablatura, por pequeño que fuese, a sabiendas de la cantidad de Tabs que existen ya de éste afamado disco.
  Por eso, y deseando tener en nuestras manos el disco con la cantidad de información de la banda, entrevistas, temas en vivo, inéditos, fotos, con los que añorar aquellos maravillosos años, os dejamos con unos pequeños momentos en tablatura de "Battery".
  Un saludo.
  TabsFácil.



Battery. Metallica.

Guit. 1

1.-----------------|
2.-----------------|
3.-----------------|
4.-3-2--2--2--0-0--|
5.-2----0--0----5--|
6.-0----1--2----3--|

1.-----------------|
2.-----------------|
3.-----------------|
4.-3-2--2--2--0-0--|
5.-2----0--0----5--|
6.-0----1--2----3--|...


(0:13)Guit. 2

1.-----------------------------|
2.-----------------------------|
3.-4-5----4--5----4-5------5-4-|
4.-----7-------7------7-5------|
5.-----------------------------|
6.-----------------------------|

1.-----------------------------|
2.-----------------------------|
3.-4-5----4--5----4-5------5-4-|
4.-----7-------7------7-5------|
5.-----------------------------|
6.--------------------------|...


(0:37)Guit. 1

1.---------------|
2.---------------|
3.---------------|
4.---------------|
5.-2---3---4---5-|
6.-0---1---2---3-|...


(0:38)Guit. 2


1.------------------------------|
2.-8-10----8--10----8-10-----10-8
3.------9--------9-------9-7----|
4.------------------------------|
5.------------------------------|
6.--------------------------|...



No hay comentarios:

Publicar un comentario